Sound will begin in 5 seconds

108 (underground, underworld, dark, drugs, mystery)

Chords
01234567891011121314151617181920212223
E
B
G
D
A
E
B
0 1 2 3 4 5 6 7 8 9 10 11 12 13 14 15 16 17 18 19 20 21 22 23
Song Science #1: How Pros Use 6 Chords to Write Hit Songs
(/) Slide Up  (\) Slide Down  (h) Hammer On  (p) Pull Off  (b) Bend (r) Release (v) Vibrato

Stave 1:

E|-----------5--0-------------------7-----------5--0-------------------7--9-----------9-----------------------
B|--------3--------3-------------5-----------3--------3-------------5--------7-----------7--------------------
G|-----4--------------4-------6-----------4--------------4-------6--------------8-----------8-----------------
D|--5--------------------5/7-----------5--------------------5/7--------------------9-----------9/11--7--7--7--
A|------------------------------------------------------------------------------------------------------------
E|------------------------------------------------------------------------------------------------------------

Stave 2:

E|-----------------------------------------------------------2--------------------
B|-----3--------3-----5--3-----2--------2-----5--3--------------2-----2--3--2-----
G|--------4--------4--------------2--------2-----------4-----------2-----------2--
D|-----------5-----------------------2--------------------4-----------------------
A|--------------------------0-----------------------2-----------------------------
E|--3-----------------------------------------------------------------------------

Stave 3:

E|--3--0--2--2--2--2--
B|--3--0--2--2--3--2--
G|--0--2--4--4--2--4--
D|--0--2--4--4--4--4--
A|--2--0--2--2--2--2--
E|--3-----------------

Stave 4:

E|--3-----------------------------------------------------------------------------3------------------
B|--3-----------------------------------------------------------------------------3------------------
G|--0--2--------------------------------------------------------------------------0-------2--2h4--2--
D|--0--2--4--------4-----4--4--------------4--4--------4-----4--4-----------------0-------2----------
A|-----0--2--2--2--2--2--2--4--2--2--5--4--2--2--2--2--2--2--2--2--2--2--2----------------0----------
E|--3-----------------------------------------------------------------------2--3--3--3b4-------------

http://www.guitartabcreator.com
Guitar Tab Creator is intended to store guitar tab created through the tool. It currently does not support in-line text editing. Any text you place in here will be lost. If you need to comment on your tab, please use the "Tab Notes" section located below.