Timelapse

Chords

01234567891011121314151617181920212223
E
B
G
D
A
E
B
0 1 2 3 4 5 6 7 8 9 10 11 12 13 14 15 16 17 18 19 20 21 22 23
(/) Slide Up  (\) Slide Down  (h) Hammer On  (p) Pull Off  (b) Bend (r) Release (v) Vibrato

Stave 1:

E|--------------------------------------------------------------------------------------------------------------------------------------------------
B|-----1--------1--------1--------1--------1--------1--------1--------1--------1--------1--------1--------1--------1--------1--------1--------1-----
G|--------2--------2--------2--------2--------2--------2--------2--------2--------2--------2--------2--------2--------2--------2--------2--------2--
D|-----------2-----------------2-----------------2-----------------2-----------------2-----------------2-----------------2-----------------2--------
A|--0-----------------3-----------------0-----------------3-----------------0-----------------3-----------------0-----------------3-----------------
E|--------------------------------------------------------------------------------------------------------------------------------------------------

Stave 2:

E|--------------------------------------------------------------------------
B|-----0--------0--------0--------0--------0--------0--------0--------0-----
G|--------2--------2--------2--------2--------2--------2--------2--------2--
D|-----------2-----------------2-----------------2-----------------2--------
A|--------------------3-----------------------------------3-----------------
E|--1-----------------------------------1-----------------------------------

Stave 3:

E|--------------------------------------------------------------------------------------------------------------------------------------------------
B|-----1--------1--------1--------1--------1--------1--------1--------1--------1--------1--------1--------1--------1--------1--------1--------1-----
G|--------2--------2--------2--------2--------2--------2--------2--------2--------2--------2--------2--------2--------2--------2--------2--------2--
D|-----------2-----------------2-----------------2-----------------2-----------------2-----------------2-----------------2-----------------2--------
A|--0-----------------3-----------------0-----------------3-----------------0-----------------3-----------------0-----------------3-----------------
E|--------------------------------------------------------------------------------------------------------------------------------------------------

							http://www.guitartabcreator.com
Instruments
{"strings":[[[".",".",".",".",".",".",".",".",".",".",".",".",".",".",".",".",".",".",".",".",".",".",".",".",".",".",".",".",".",".",".",".",".",".",".",".",".",".",".",".",".",".",".",".",".",".",".","."],[".",1,".",".",1,".",".",1,".",".",1,".",".",1,".",".",1,".",".",1,".",".",1,".",".",1,".",".",1,".",".",1,".",".",1,".",".",1,".",".",1,".",".",1,".",".",1,"."],[".",".",2,".",".",2,".",".",2,".",".",2,".",".",2,".",".",2,".",".",2,".",".",2,".",".",2,".",".",2,".",".",2,".",".",2,".",".",2,".",".",2,".",".",2,".",".",2],[".",".",".",2,".",".",".",".",".",2,".",".",".",".",".",2,".",".",".",".",".",2,".",".",".",".",".",2,".",".",".",".",".",2,".",".",".",".",".",2,".",".",".",".",".",2,".","."],[0,".",".",".",".",".",3,".",".",".",".",".",0,".",".",".",".",".",3,".",".",".",".",".",0,".",".",".",".",".",3,".",".",".",".",".",0,".",".",".",".",".",3,".",".",".",".","."],[".",".",".",".",".",".",".",".",".",".",".",".",".",".",".",".",".",".",".",".",".",".",".",".",".",".",".",".",".",".",".",".",".",".",".",".",".",".",".",".",".",".",".",".",".",".",".","."]],[[".",".",".",".",".",".",".",".",".",".",".",".",".",".",".",".",".",".",".",".",".",".",".","."],[".",0,".",".",0,".",".",0,".",".",0,".",".",0,".",".",0,".",".",0,".",".",0,"."],[".",".",2,".",".",2,".",".",2,".",".",2,".",".",2,".",".",2,".",".",2,".",".",2],[".",".",".",2,".",".",".",".",".",2,".",".",".",".",".",2,".",".",".",".",".",2,".","."],[".",".",".",".",".",".",3,".",".",".",".",".",".",".",".",".",".",".",3,".",".",".",".","."],[1,".",".",".",".",".",".",".",".",".",".",".",1,".",".",".",".",".",".",".",".",".",".","."]],[[".",".",".",".",".",".",".",".",".",".",".",".",".",".",".",".",".",".",".",".",".",".",".",".",".",".",".",".",".",".",".",".",".",".",".",".",".",".",".",".",".",".",".",".",".",".",".","."],[".",1,".",".",1,".",".",1,".",".",1,".",".",1,".",".",1,".",".",1,".",".",1,".",".",1,".",".",1,".",".",1,".",".",1,".",".",1,".",".",1,".",".",1,".",".",1,"."],[".",".",2,".",".",2,".",".",2,".",".",2,".",".",2,".",".",2,".",".",2,".",".",2,".",".",2,".",".",2,".",".",2,".",".",2,".",".",2,".",".",2,".",".",2,".",".",2],[".",".",".",2,".",".",".",".",".",2,".",".",".",".",".",2,".",".",".",".",".",2,".",".",".",".",".",2,".",".",".",".",".",2,".",".",".",".",".",2,".",".",".",".",".",2,".","."],[0,".",".",".",".",".",3,".",".",".",".",".",0,".",".",".",".",".",3,".",".",".",".",".",0,".",".",".",".",".",3,".",".",".",".",".",0,".",".",".",".",".",3,".",".",".",".","."],[".",".",".",".",".",".",".",".",".",".",".",".",".",".",".",".",".",".",".",".",".",".",".",".",".",".",".",".",".",".",".",".",".",".",".",".",".",".",".",".",".",".",".",".",".",".",".","."]]],"numberofstrings":6,"notes":["E","B","G","D","A","E","B"],"capo":0,"stringnotes":["E4","B3","G3","D3","A2","E2"],"comments":["Stave 1:","Stave 2:","Stave 3:"],"timing":[[null,null,null,null,null,null,null,null,null,null,null,null,null,null,null,null,null,null,null,null,null,null,null,null,null,null,null,null,null,null,null,null,null,null,null,null,null,null,null,null,null,null,null,null,null,null,null,null],[null,null,null,null,null,null,null,null,null,null,null,null,null,null,null,null,null,null,null,null,null,null,null,null],[null,null,null,null,null,null,null,null,null,null,null,null,null,null,null,null,null,null,null,null,null,null,null,null,null,null,null,null,null,null,null,null,null,null,null,null,null,null,null,null,null,null,null,null,null,null,null,null]],"timingvisible":false,"tabcounter":48,"stave":2,"totalstaves":3,"instrument":"6guitar","selectedtuning":"6_standard","version":"13"}

Member for

1 month 2 weeks
Submitted by ConnorD on Tue, 2020-12-01 17:25