Sound will begin in 5 seconds

Purple Rain Solo

Chords
01234567891011121314151617181920212223
E
B
G
D
A
E
B
0 1 2 3 4 5 6 7 8 9 10 11 12 13 14 15 16 17 18 19 20 21 22 23
Song Science #1: How Pros Use 6 Chords to Write Hit Songs
(/) Slide Up  (\) Slide Down  (h) Hammer On  (p) Pull Off  (b) Bend (r) Release (v) Vibrato

Stave 1:

E|--------------------------------------------------------------------------------------
B|-------h18------------15------------------------18b20--18p16h18--18-----15--18r18-----
G|--17b19---------15h17p15v--------\10h12v----------------------------------------------
D|------------17------------------------------------------------------------------------
A|--------------------------------------------------------------------------------------
E|--------------------------------------------------------------------------------------

Stave 2:

E|---------------------------------------------
B|--18p15--15----------------------------------
G|---------17--17--15--------------------------
D|---------------------17--15--17--15----------
A|-------------------------------------17--15--
E|---------------------------------------------

Stave 3:

E|---------------------------------------------------------------------------------------------------
B|--18----------------18----------------18----------------18----------------18----------------18-----
G|--17b19--17p15------17b19--17p15------17b19--17p15------17b19--17p15------17b19--17p15------17b19--
D|----------------17----------------17----------------17----------------17----------------17---------
A|---------------------------------------------------------------------------------------------------
E|---------------------------------------------------------------------------------------------------

Stave 4:

E|--18b20r18b20r18b20r18b20--18-----15--17--18--15--17--18--15--17--18--17h18--17h18--17h18--
B|-------------------------------------------------------------------------------------------
G|-------------------------------------------------------------------------------------------
D|-------------------------------------------------------------------------------------------
A|-------------------------------------------------------------------------------------------
E|-------------------------------------------------------------------------------------------

Stave 5:

E|--20b22r20----------20b22r20-------------17b19--19p17h19--17h19--15-----------------------------
B|------------18--18------------18--18---------------------------------18--16v--15--15h16p15------
G|--------------------------------------------------------------------------------------------17--
D|------------------------------------------------------------------------------------------------
A|------------------------------------------------------------------------------------------------
E|------------------------------------------------------------------------------------------------

http://www.guitartabcreator.com
Guitar Tab Creator is intended to store guitar tab created through the tool. It currently does not support in-line text editing. Any text you place in here will be lost. If you need to comment on your tab, please use the "Tab Notes" section located below.