dark side of the moon bass (not finished)

Chords

01234567891011121314151617181920212223
E
B
G
D
A
E
B
0 1 2 3 4 5 6 7 8 9 10 11 12 13 14 15 16 17 18 19 20 21 22 23
(/) Slide Up  (\) Slide Down  (h) Hammer On  (p) Pull Off  (b) Bend (r) Release (v) Vibrato

Stave 1:

G|--------------------
D|--------------7--9--
A|--------9--7--------
E|--7--9--------------

Stave 2:

G|-----------------------------------------
D|-----------------------------------------
A|--------------------3--------------------
E|--3--5--7--3--3--5-----3--5--7--3--3--5--

Stave 3:

G|--------------------
D|--------7--------7--
A|--7--5-----7--5-----
E|--------------------

Stave 4:

G|---------------------------------------------------------------------------
D|---------------------------------------------------------------------------
A|-----------10--8--------------10--8--------------10--8--------------10--8--
E|--9--9--7---------9--9--9--7---------9--9--9--7---------9--9--9--7---------

Stave 5:

G|------------------------------------------------------------------------
D|------------------------------------------------------------------------
A|-----------10--8--------------10--8--------------10--8--------------10--
E|--9--9--7---------9--9--9--7---------9--9--9--7---------9--9--9--7------

Stave 6:

G|-----------------------------
D|-----------------------------
A|-----------------------------
E|--5--5--5--5--5--5--5--5--5--

Stave 7:

G|-----------------------
D|--------7--------7-----
A|--7--5-----7--5--------
E|-----------------------

Stave 8:

G|----------------------------------------------------------------------------------------x--x--x--x-----
D|------------2/3------------2h3----------------------------------------------------------x--x--x--x-----
A|-----------------------------------------------------------------------------2/3--2--3--x--x--x--x--2--
E|--3/5--3/5-------3/5--3/5-------5--7--5--7--5--5--7--5--7--5--2/3--2/3--2/3-------------x--x--x--x--0--

							http://www.guitartabcreator.com
genre
Instruments
{"strings":[[[".",".",".",".",".","."],[".",".",".",".",7,9],[".",".",9,7,".","."],[7,9,".",".",".","."]],[[".",".",".",".",".",".",".",".",".",".",".",".","."],[".",".",".",".",".",".",".",".",".",".",".",".","."],[".",".",".",".",".",".",3,".",".",".",".",".","."],[3,5,7,3,3,5,".",3,5,7,3,3,5]],[[".",".",".",".",".","."],[".",".",7,".",".",7],[7,5,".",7,5,"."],[".",".",".",".",".","."]],[[".",".",".",".",".",".",".",".",".",".",".",".",".",".",".",".",".",".",".",".",".",".","."],[".",".",".",".",".",".",".",".",".",".",".",".",".",".",".",".",".",".",".",".",".",".","."],[".",".",".",10,8,".",".",".",".",10,8,".",".",".",".",10,8,".",".",".",".",10,8],[9,9,7,".",".",9,9,9,7,".",".",9,9,9,7,".",".",9,9,9,7,".","."]],[[".",".",".",".",".",".",".",".",".",".",".",".",".",".",".",".",".",".",".",".",".","."],[".",".",".",".",".",".",".",".",".",".",".",".",".",".",".",".",".",".",".",".",".","."],[".",".",".",10,8,".",".",".",".",10,8,".",".",".",".",10,8,".",".",".",".",10],[9,9,7,".",".",9,9,9,7,".",".",9,9,9,7,".",".",9,9,9,7,"."]],[[".",".",".",".",".",".",".",".","."],[".",".",".",".",".",".",".",".","."],[".",".",".",".",".",".",".",".","."],[5,5,5,5,5,5,5,5,5]],[[".",".",".",".",".",".","."],[".",".",7,".",".",7,"."],[7,5,".",7,5,".","."],[".",".",".",".",".",".","."]],[[".",".",".",".",".",".",".",".",".",".",".",".",".",".",".",".",".",".",".",".",".",".",".",".",".",".",".",".",".",".",".",".",".",".",".",".",".",".",".",".",".",".","x23","x23","x23","x23","."],[".",".",".",".",".",".",2,"/",3,".",".",".",".",".",".",2,"h",3,".",".",".",".",".",".",".",".",".",".",".",".",".",".",".",".",".",".",".",".",".",".",".",".","x23","x23","x23","x23","."],[".",".",".",".",".",".",".",".",".",".",".",".",".",".",".",".",".",".",".",".",".",".",".",".",".",".",".",".",".",".",".",".",".",".",".",".",".",2,"/",3,2,3,"x23","x23","x23","x23",2],[3,"/",5,3,"/",5,".",".",".",3,"/",5,3,"/",5,".",".",".",5,7,5,7,5,5,7,5,7,5,2,"/",3,2,"/",3,2,"/",3,".",".",".",".",".","x23","x23","x23","x23",0]]],"numberofstrings":4,"notes":["G","D","A","E"],"capo":0,"stringnotes":["G2","D2","A1","E1"],"comments":["Stave 1:","Stave 2:","Stave 3:","Stave 4:","Stave 5:","Stave 6:","Stave 7:","Stave 8:"],"timing":[["W","W","W","W","W","W"],["W","W","W","W","W","W","W","W","W","W","W","W","W"],["W","W","W","W","W","W"],["W","W","W","W","W","W","W","W","W","W","W","W","W","W","W","W","W","W","W","W","W","W","W"],["W","W","W","W","W","W","W","W","W","W","W","W","W","W","W","W","W","W","W","W","W","W"],["W","W","W","W","W","W","W","W","W"],["W","W","W","W","W","W"],["W","W","W","W",null,"W","W",null,"W","W",null,"W","W",null,"W","W",null,"W","W","W","W","W","W","W","W","W","W","W","W",null,"W","W",null,"W","W",null,"W","W",null,"W","W","W","W","W","W","W","W"]],"timingvisible":false,"tabcounter":46,"stave":7,"totalstaves":8,"instrument":"4bass","selectedtuning":"4bass","version":"13"}

Member for

1 week 4 days
Submitted by Coliball on Sat, 2020-06-27 09:57