Sound will begin in 5 seconds

Morrison's Jig Em mandolin

01234567891011121314151617181920212223
E
B
G
D
A
E
B
0 1 2 3 4 5 6 7 8 9 10 11 12 13 14 15 16 17 18 19 20 21 22 23
Song Science #1: How Pros Use 6 Chords to Write Hit Songs
(/) Slide Up  (\) Slide Down  (h) Hammer On  (p) Pull Off  (b) Bend (r) Release (v) Vibrato

Stave 1:

E|--------------------------------------------------------------------
A|--------2-----2-----2-----0-----------2-----2--4--5--4--2--0--------
D|--2--2-----2-----2-----2-----4--0--2-----2--------------------4--0--
G|--------------------------------------------------------------------

Stave 2:

E|--------------------------------------------------------------------
A|-----2-----2--2-----2-----0--------------------0--5--0--------------
D|--2-----2--------2-----2-----4--0--5--5--4--5-----------5--4--2--0--
G|--------------------------------------------------------------------

Stave 3:

E|-----0--0--2--0--0-----0--0--2--0--------0--0--2--------2--5--3--2--0-----
A|--2-----------------0--------------5--2-----------5--5-----------------5--
D|--------------------------------------------------------------------------
G|--------------------------------------------------------------------------

Stave 4:

E|-----0--0--2--0--0--5--0--0--2--0-----0--------------------------------
A|--2--------------------------------5-----5--4--5--0--2--0--------------
D|-----------------------------------------------------------5--4--2--0--
G|-----------------------------------------------------------------------

Stave 5:

E|-----0--0--2--0--0--5--0--0--2--0--------0--0--2--0-----2--5--2-----0--2--
A|--2--------------------------------5--2--------------5-----------5--------
D|--------------------------------------------------------------------------
G|--------------------------------------------------------------------------

Stave 6:

E|--3--3--3--2--0-----0--2--3-----0--------------------------------
A|-----------------5-----------5-----5--4--5--0--2--0--------------
D|-----------------------------------------------------5--4--2--0--
G|-----------------------------------------------------------------

http://www.guitartabcreator.com
Guitar Tab Creator is intended to store guitar tab created through the tool. It currently does not support in-line text editing. Any text you place in here will be lost. If you need to comment on your tab, please use the "Tab Notes" section located below.