Sound will begin in 5 seconds

Vacant - Dissociate Bass Tab

01234567891011121314151617181920212223
E
B
G
D
A
E
B
0 1 2 3 4 5 6 7 8 9 10 11 12 13 14 15 16 17 18 19 20 21 22 23
Song Science #1: How Pros Use 6 Chords to Write Hit Songs
(/) Slide Up  (\) Slide Down  (h) Hammer On  (p) Pull Off  (b) Bend (r) Release (v) Vibrato

Stave 1:

Eb|--------------------------------------------------------------------------
Bb|--------------------------------------------------------------------------
F |--------------------------------------------------------------------------
C |--5--------3--------5--------------3-----5--------3--------5--------------
F |-----0--1-----1--0-----0--0--1--0-----------0--1-----1--0-----0--0--1--0--

Stave 2:

Eb|-----------------------------------------
Bb|-----------------------------------------
F |-----------------------------------------
C |--5--------3--------5--------------------
F |-----0--1-----1--0-----0--0--1--0--------

Stave 3:

Eb|--------------------------------------------------------
Bb|--------------------------------------------------------
F |--------------------------------------------------------
C |--------------------------------------------------------
F |--3-----2-----1-----------------3-----2-----1-----0--0--

Stave 4:

Eb|-------------------------------------------------------------------------------------------------------------------------------
Bb|-------------------------------------------------------------------------------------------------------------------------------
F |-------------------------------------------------------------------------------------------------------------------------------
C |-------------------------------------------------------------------------------------------------------------------------------
F |--1-----0-----1-----0-----------0--0--------0--0-----0--5\1--------1-----0-----1-----0--------0--0--0-----0--0--1-----1-----1--

Stave 5:

Eb|--------------------------------------------------
Bb|--------------------------------------------------
F |--------------------------------------------------
C |--------------------------------------------------
F |--------------------0--0--1--------1--------1-----

Stave 6:

Eb|--------------------------------------------------------------------------------------------------------------------------------------------------------
Bb|--------------------------------------------------------------------------------------------------------------------------------------------------------
F |--------------------------------------------------------------------------------------------------------------------------------------------------------
C |--------------6-----------3--5-----------------------------------------------------------------6--------3-----5-----------------------------------------
F |--0--------------------------------0--0--------------------0--0--0--0-----0--0-----0-----------------------------------0-----0--------------------------

Stave 7:

Eb|--------------------------------------------------
Bb|--------------------------------------------------
F |--------------------------------------------------
C |--------------------------------------------------
F |--0-----------0-----------0-----------0-----------

http://www.guitartabcreator.com
Guitar Tab Creator is intended to store guitar tab created through the tool. It currently does not support in-line text editing. Any text you place in here will be lost. If you need to comment on your tab, please use the "Tab Notes" section located below.