Sound will begin in 5 seconds

First Song- Fall to Earth

Chords
01234567891011121314151617181920212223
E
B
G
D
A
E
B
0 1 2 3 4 5 6 7 8 9 10 11 12 13 14 15 16 17 18 19 20 21 22 23
Song Science #1: How Pros Use 6 Chords to Write Hit Songs
(/) Slide Up  (\) Slide Down  (h) Hammer On  (p) Pull Off  (b) Bend (r) Release (v) Vibrato

(W|WW) Whole (H|HH) Half (Q|QQ) Quarter (E|EE) 8th (S|SS) 16th (T|TT) 32nd (X|XX) 64th

Stave 1:
t: Q Q Q Q Q Q Q Q QQ Q Q Q Q Q Q Q Q Q Q Q Q Q Q Q QQ Q Q QQ Q Q Q Q
D|-----------------------------------------------------------------------------------------------------
A|-----------------------------------------------------------------------------------------------------
F|-----------------------------------------------------------------------------------------------------
C|---------------------------------------------------------------------------12--7--8--10--8--7--------
G|--5-----------7--0--8--0--10--0--8--0--7--8--7--4--5-----------7--0--8--0----------------------8--7--
C|-----8--5--7------------------------------------------8--5--7----------------------------------------

Stave 2:
t: Q Q Q Q Q Q Q Q QQ Q Q Q Q Q Q Q Q Q Q Q Q Q Q Q Q Q Q Q Q Q Q Q
D|---------------------------------------------------------------------------------------------------
A|---------------------------------------------------------------------------------------------------
F|---------------------------------------------------------------------------------------------------
C|---------------------------------------------------------------------------------------------------
G|--5-----------7--0--8--0--10--0--8--0--7--8--7--4--5-----------7--0--8--0--5-----------------------
C|-----8--5--7------------------------------------------8--5--7-----------------7--8--5--7--3--5--2--

Stave 3:
t: E E E E E E E E E E E E E E E Q E E E E E E E E E E EE E EE EE EE
D|---------------------------------------------------------------------------------------------------
A|---------------------------------------------------------------------------------------------------
F|---------------------------------------------------------------------------------------------------
C|---------------------------------------------------------------------------------------------------
G|--------5-----4--5-----7-----8--------7--8--7--------5--------7--------8--------10---------12------
C|--0--0-----0--------0-----0-----0--0-----------0--3-----0--5-----0--7-----0--8------0--10------10--

Stave 4:
t: E EE EE EE EE EE E E EE E EE E E E E E E E E E E E E E E E E E
D|---------------------------------------------------------------------------------------------
A|---------------------------------------------------------------------------------------------
F|---------------------------------------------------------------------------------------------
C|---------------------------------------------------------------------------------------------
G|---------12------12------------10-----10-----------8-----8-----------7-----7-----------8--7--
C|--0--10------10------10--0--8------8------8--0--7-----7-----7--0--5-----5-----5--0--5--------

Stave 5:
t: S S E E E S S E E E E E E E E E Q S S E E E S S E E E E E E E E EE EE EE
D|---------------------------------------------------------------------------------------------------------------
A|---------------------------------------------------------------------------------------------------------------
F|---------------------------------------------------------------------------------------------------------------
C|-----------5--------------5------------------------------------5--------------5--------------3-------------10--
G|--------------5--------------5--------------------3v--------------5--------------5--------3------------10------
C|--0--0--0--------0--0--0--------0--7--5--3--2--5------0--0--0--------0--0--0--------0--3--------0--10----------

Stave 6:
t: E E E E E
D|-----------------
A|-----------------
F|-----------7--7--
C|--3--7--5--7--5--
G|--3--7--5--5--3--
C|--3--7--5--------

http://www.guitartabcreator.com
Guitar Tab Creator is intended to store guitar tab created through the tool. It currently does not support in-line text editing. Any text you place in here will be lost. If you need to comment on your tab, please use the "Tab Notes" section located below.