Sound will begin in 5 seconds

First Song

01234567891011121314151617181920212223
E
B
G
D
A
E
B
0 1 2 3 4 5 6 7 8 9 10 11 12 13 14 15 16 17 18 19 20 21 22 23
Song Science #1: How Pros Use 6 Chords to Write Hit Songs
(/) Slide Up  (\) Slide Down  (h) Hammer On  (p) Pull Off  (b) Bend (r) Release (v) Vibrato

Stave 1:

D|-----------------------------------------------------------------
A|-----------------------------------------------------------------
F|-----------------------------------------------------------------
C|-----------------------------------------------------------------
G|-5-5-5-5-------------------------7-7-7-7-0-0-0-0-8-8-8-8-0-0-0-0-
C|---------8-8-8-8-5-5-5-5-7-7-7-7---------------------------------

Stave 2:

D|---------------------------------------------------------------------
A|---------------------------------------------------------------------
F|---------------------------------------------------------------------
C|---------------------------------------------------------------------
G|-10-10-10-10-0-0-0-0-8-8-8-8-0-0-0-0-7-7-7-7-8-8-8-8-7-7-7-7-4-4-4-4-
C|---------------------------------------------------------------------

Stave 3:

D|-------------------------------------------------------------------------
A|-------------------------------------------------------------------------
F|-------------------------------------------------------------------------
C|-12-12-12-12-7-7-7-7-8-8-8-8-10-10-10-10-8-8-8-8-7-7-7-7-----------------
G|---------------------------------------------------------8-8-8-8-7-7-7-7-
C|-------------------------------------------------------------------------

Stave 4:

D|-----------------------------------------------------------------
A|-----------------------------------------------------------------
F|-----------------------------------------------------------------
C|-----------------------------------------------------------------
G|-5-5-5-5---------------------------------------------------------
C|---------7-7-7-7-8-8-8-8-5-5-5-5-7-7-7-7-3-3-3-3-5-5-5-5-2-2-2-2-

http://www.guitartabcreator.com
Guitar Tab Creator is intended to store guitar tab created through the tool. It currently does not support in-line text editing. Any text you place in here will be lost. If you need to comment on your tab, please use the "Tab Notes" section located below.