Kyle NIB Riffs

01234567891011121314151617181920212223
E
B
G
D
A
E
B
0 1 2 3 4 5 6 7 8 9 10 11 12 13 14 15 16 17 18 19 20 21 22 23
(/) Slide Up  (\) Slide Down  (h) Hammer On  (p) Pull Off  (b) Bend (r) Release (v) Vibrato

Stave 1:

Eb|-------------------------------------------------------------------------------------------
Bb|----------------------------------10b8-----------------------------------------------------
Gb|-------------------------------------------------------------------------------------------
Db|--9--9--7--9--12--11--9--9--7--9-----------------9--7--9--12--11--9--9--7--9---------------
Ab|--7--7--5--7--10--9---7--7--5--7-----------------7--5--7--10--9---7--7--5--7--5h7--5h7--7--
Eb|-------------------------------------------------------------------------------------------

Stave 2:

Eb|------------------------------------------
Bb|----------------------------------12--12--
Gb|----------------------------------12--12--
Db|--9--9--7--9--12--11--9--9--7--9----------
Ab|--7--7--5--7--10--9---7--7--5--7----------
Eb|------------------------------------------

Stave 3:

Eb|--------------------------------------
Bb|--------------------------------------
Gb|--------------------------------------
Db|--9--7--5--4--9--7--5--4--5--4--5--4--
Ab|--7--5--3--2--7--5--3--2--3--2--3--2--
Eb|--------------------------------------

							http://www.guitartabcreator.com
Chords

Instruments
{"strings":[[[".",".",".",".",".",".",".",".",".",".",".",".",".","_","_","_",".",".",".",".",".",".",".",".",".",".",".",".",".",".",".","."],[".",".",".",".",".",".",".",".",".",".",10,"b",8,"_","_","_",".",".",".",".",".",".",".",".",".",".",".",".",".",".",".","."],[".",".",".",".",".",".",".",".",".",".",".",".",".","_","_","_",".",".",".",".",".",".",".",".",".",".",".",".",".",".",".","."],[9,9,7,9,12,11,9,9,7,9,".",".",".","_","_","_",9,7,9,12,11,9,9,7,9,".",".",".",".",".",".","."],[7,7,5,7,10,9,7,7,5,7,".",".",".","_","_","_",7,5,7,10,9,7,7,5,7,5,"h",7,5,"h",7,7],[".",".",".",".",".",".",".",".",".",".",".",".",".","_","_","_",".",".",".",".",".",".",".",".",".",".",".",".",".",".",".","."]],[[".",".",".",".",".",".",".",".",".",".",".","."],[".",".",".",".",".",".",".",".",".",".",12,12],[".",".",".",".",".",".",".",".",".",".",12,12],[9,9,7,9,12,11,9,9,7,9,".","."],[7,7,5,7,10,9,7,7,5,7,".","."],[".",".",".",".",".",".",".",".",".",".",".","."]],[[".",".",".",".",".",".",".",".",".",".",".","."],[".",".",".",".",".",".",".",".",".",".",".","."],[".",".",".",".",".",".",".",".",".",".",".","."],[9,7,5,4,9,7,5,4,5,4,5,4],[7,5,3,2,7,5,3,2,3,2,3,2],[".",".",".",".",".",".",".",".",".",".",".","."]]],"numberofstrings":6,"notes":["DsEb","AsBb","FsGb","CsDb","GsAb","DsEb"],"capo":0,"stringnotes":["Eb3","Bb2","Gb2","Db2","Ab1","Eb1"],"comments":["Stave 1:","Stave 2:","Stave 3:"],"timing":[[null,null,null,null,null,null,null,null,null,null,null,null,null,null,null,null,null,null,null,null,null,null,null,null,null,null,null,null,null,null,null,null,null,null],[null,null,null,null,null,null,null,null,null,null,null,null],[null,null,null,null,null,null,null,null,null,null,null,null]],"timingvisible":false,"tabcounter":11,"stave":2,"totalstaves":3,"instrument":"6guitar","selectedtuning":"Half Step Down","version":"13"}

Member for

6 months 2 weeks
Submitted by CMPROCK on Thu, 2021-01-14 22:51