Sound will begin in 5 seconds

E minor sad song trial

01234567891011121314151617181920212223
E
B
G
D
A
E
B
0 1 2 3 4 5 6 7 8 9 10 11 12 13 14 15 16 17 18 19 20 21 22 23
Song Science #1: How Pros Use 6 Chords to Write Hit Songs
(/) Slide Up  (\) Slide Down  (h) Hammer On  (p) Pull Off  (b) Bend (r) Release (v) Vibrato

(W|WW) Whole (H|HH) Half (Q|QQ) Quarter (E|EE) 8th (S|SS) 16th (T|TT) 32nd (X|XX) 64th

Stave 1:
t: WW WW WW QQ EE EE HH QQ QQ QQ QQ QQ QQ Q Q Q Q Q Q Q Q Q Q Q
E|-----------------------------|---------------------------------|-----------------------------
B|--17--15--12/15--14--17--12--|----------12---------------------|-----------------------------
G|-----------------------------|--12--14----------12--14--7--5v--|-----5--7p5-----------5------
D|-----------------------------|--------------14-----------------|--7----------7--5--7-----7v--
A|-----------------------------|---------------------------------|-----------------------------
E|-----------------------------|---------------------------------|-----------------------------

Stave 2:
t: Q W Q Q Q Q Q Q W WW HH HH QQ QQ HH WW
E|---------------------------|-------------------------------
B|-----5-----5--7p5----------|--12--15--17-------------------
G|--7-----7----------7--5h7--|--------------14--16-----------
D|---------------------------|----------------------17v--17--
A|---------------------------|-------------------------------
E|---------------------------|-------------------------------

http://www.guitartabcreator.com
Guitar Tab Creator is intended to store guitar tab created through the tool. It currently does not support in-line text editing. Any text you place in here will be lost. If you need to comment on your tab, please use the "Tab Notes" section located below.