Sound will begin in 5 seconds

Are You Finished Yet?

Chords
01234567891011121314151617181920212223
E
B
G
D
A
E
B
0 1 2 3 4 5 6 7 8 9 10 11 12 13 14 15 16 17 18 19 20 21 22 23
Song Science #1: How Pros Use 6 Chords to Write Hit Songs
(/) Slide Up  (\) Slide Down  (h) Hammer On  (p) Pull Off  (b) Bend (r) Release (v) Vibrato

Stave 1:

E|-------------------------------------------------------------------------------------------------
B|-------------------------------------------------------------------------------------------------
G|----------13--------------13--------------13--------------13-------------13--------------13------
D|------14------14------14------14------14------14------14-------------14------14------14------14--
A|--12--------------12--------------12--------------12----------12\11--------------11--------------
E|-------------------------------------------------------------------------------------------------

Stave 2:

E|-------------------------------------
B|-------------------------------------
G|----------13--------------13---------
D|------14------14------14-------------
A|--11--------------11----------11/12--
E|-------------------------------------

Stave 3:

E|-----------------------------------------------------------------------------------------------------
B|-----------------------------------------------------------------------------------------------------
G|-----------------------------------------------------------------------------------------------------
D|-----------------------------------------------------------------------------------------------------
A|--11/12--12--11--12--11----------9--11/12--12--11--12--11----------9--11--11--11--11--11----------9--
E|-------------------------12--12----------------------------12--12-------------------------12--12-----

Stave 4:

E|-----------------------------------------
B|-----------------------------------------
G|-----------------------------------------
D|-----------------------------------------
A|--9/11--11--11--11--11----------9--9/12--
E|------------------------12--12-----------

Stave 5:

E|-----------------------------------
B|--5/10-----5/9-----5/10-----5/9\7--
G|-----------------------------------
D|-----------------------------------
A|-----------------------------------
E|-----------------------------------

Stave 6:

E|--5--7--5--4--5--4--0-----5--4--4--5--4-----5--7--5--4--5--4--0--4--2--4--0--4--5--4-----4--5--4--
B|--------------------------------------------------------------------------------------------------
G|--------------------------------------------------------------------------------------------------
D|--------------------------------------------------------------------------------------------------
A|--------------------------------------------------------------------------------------------------
E|--------------------------------------------------------------------------------------------------

Stave 7:

E|--------------------------------------------------------------------------------------------------
B|--------------------------------------------------------------------------------------------------
G|--------------------------------------------------------------------------------------------------
D|--6--6--6--6--6--6--6--6--6--6--6--6--6--6--6--6--6--6--6--6--6--6--6--6--6--6--6--6--6--6--6--6--
A|--7--7--7--7--7--7--7--7--7--7--7--7--7--7--7--7--7--7--7--7--7--7--7--7--7--7--7--7--7--7--7--7--
E|--5--5--5--5--5--5--5--5--5--5--5--5--5--0--0--0--4--4--4--4--4--4--4--4--4--4--4--4--4--0--0--0--

Stave 8:

E|--------------------------------------------------------------------------------------------------
B|--------------------------------------------------------------------------------------------------
G|--------------------------------------------------------------------------------------------------
D|--6--6--6--6--6--6--6--6--6--6--6--6--6--6--6--6--6--6--6--6--6--6--6--6--6--6--6--6--6--6--6--6--
A|--0--0--0--0--0--0--0--0--0--0--0--0--0--7--7--7--7--7--7--7--7--7--7--7--7--7--7--7--7--7--7--7--
E|--0--0--0--0--0--0--0--0--0--0--0--0--0--5--5--5--4--4--4--4--4--4--4--4--4--4--4--4--4--0--0--0--

http://www.guitartabcreator.com
Guitar Tab Creator is intended to store guitar tab created through the tool. It currently does not support in-line text editing. Any text you place in here will be lost. If you need to comment on your tab, please use the "Tab Notes" section located below.