Sound will begin in 5 seconds

Empuje

01234567891011121314151617181920212223
E
B
G
D
A
E
B
0 1 2 3 4 5 6 7 8 9 10 11 12 13 14 15 16 17 18 19 20 21 22 23
(/) Slide Up  (\) Slide Down  (h) Hammer On  (p) Pull Off  (b) Bend (r) Release (v) Vibrato

si me dices que empuje yo voy a jalar si me dices que empuje yo voy a jalar si me dices que empuje yo voy a jalar si me dices que empuje yo voy a jalar ya no me digas que bien nos va ya no me digas que bien nos va esta ciudad se esta derrumbando ya no nos digas que bien nos va cien anos tarda y en solo cinco lo todo se puede mini ya no me digas que bien guarda el arie hasta el momento que caigas muerto y de una vez deja todos proceder guarda el arie hasta el momento que caigas muerto y de una vez deja todos proceder\ ************** si me dices que empuje yo voy a jalar si me dices que empuje yo voy a jalar si me dices que empuje yo voy a jalar si me dices que empuje yo voy a jalar ya no me digas que bien nos va ya no me digas que bien nos va estoy cansado estoy cansado nadie te cree y nadie va nadie va a resuci si quieres ver lo bien que nos va solo te tienes que alejar guarda el arie hasta el momento que caigas muerto y de una vez deja todos proceder\ guarda el arie hasta el momento que caigas muerto y de una vez deja todos proceder\ *********************

E|-----------------------------------------------------------------------------------------------------------
B|-----------------------------------------------------------------------------------------------------------
G|-----------------------------------------------------------------------------------------------------------
D|--------------------------------------------4----4----4----4----4----8----8----8----8----13----13----13----
A|-----------------------------------------------------------------------------------------------------------
E|----2----2----2----2----2----2----2----2-------------------------------------------------------------------

Stave 2:

E|-------------------------
B|-------------------------
G|-------------------------
D|---------5----6----10----
A|----3--------------------
E|-------------------------

Stave 3:

E|----
B|----
G|----
D|----
A|----
E|----

http://www.guitartabcreator.com
Guitar Tab Creator is intended to store guitar tab created through the tool. It currently does not support in-line text editing. Any text you place in here will be lost. If you need to comment on your tab, please use the "Tab Notes" section located below.