Sound will begin in 5 seconds

Liksomdame 2018

01234567891011121314151617181920212223
E
B
G
D
A
E
B
0 1 2 3 4 5 6 7 8 9 10 11 12 13 14 15 16 17 18 19 20 21 22 23
(/) Slide Up  (\) Slide Down  (h) Hammer On  (p) Pull Off  (b) Bend (r) Release (v) Vibrato

Stave 1:

G|--------------------------------------------------------------------------
D|--------------------2-----2-----------------------------------2--0--------
A|--0-----0--0--3--0-----2-----2--------------------3-----------------3--2--
E|-----0--------------------------4--0--1--3--1--1-----1--0--0--------------
B|--------------------------------------------------------------------------

Stave 2:

G|--------------------------------------------------------------------
D|--------------------2-----2-----------------3-----------------------
A|--0-----0--0--3--0-----2-----2-----------------3--0-----------9-----
E|-----0--------------------------4--0--1--1-----------1--0--0-----9--
B|--------------------------------------------------------------------

Stave 3:

G|-----------------------------------------------------------
D|--3--------------------------------------------------------
A|-----3--------------3-----------5-----------------------7--
E|--------1--3-----3-----------5-----5--------------4--7-----
B|--------------1--------1--3-----------6--3--5--5-----------

Stave 4:

G|--------------------------------------------------------------------------------
D|-----------------------------------------------------2--------------------------
A|-----------------------------3--3-----------------------3-----------------------
E|--1--1--------------3--3--3--------------1--1--------------3--3--0--5--5--7--8--
B|--------1--1--3--5-----------------1--1--------1--1-----------------------------

Stave 5:

G|-------------------------------------------------------------------------------------
D|-------------------------------------------------------------------------------------
A|-----------------------------3--3--5--7--8--8--------10--------------------------12--
E|--1--1--------------3--3--3--------------------8--8------8--------10-----------------
B|--------1--1--3--5------------------------------------------8--8------8--10--10------

Stave 6:

G|--------------------------------------------------------------
D|-----------------------------------------------------------5--
A|--------------------2--3--5--3-----3--------------------5-----
E|--0--------------3--------------3-----3-----3--3--3--7--------
B|-----3--0--3--5--------------------------3--------------------

http://www.guitartabcreator.com
Guitar Tab Creator is intended to store guitar tab created through the tool. It currently does not support in-line text editing. Any text you place in here will be lost. If you need to comment on your tab, please use the "Tab Notes" section located below.