?

(/) Slide Up  (\) Slide Down  (h) Hammer On  (p) Pull Off  (b) Bend (r) Release (v) Vibrato

Capo Fret 2

Stave 1:

E|--------------
B|--3-----------
G|--4-----------
D|--4--4--5--2--
A|--2--4--5--2--
E|-----2--3-----

Stave 2:

E|-----------------
B|-----------------
G|--7--------------
D|--7--7--9--7--9--
A|--5--7--9--7--9--
E|-----5--7--5--7--

http://www.guitartabcreator.com
Guitar Tab Creator is intended to store guitar tab created through the tool. It currently does not support in-line text editing. Any text you place in here will be lost. If you need to comment on your tab, please use the "Tab Notes" section located below.