Sound will begin in 5 seconds

Hey joe Slash

01234567891011121314151617181920212223
E
B
G
D
A
E
B
0 1 2 3 4 5 6 7 8 9 10 11 12 13 14 15 16 17 18 19 20 21 22 23
Song Science #1: How Pros Use 6 Chords to Write Hit Songs
(/) Slide Up  (\) Slide Down  (h) Hammer On  (p) Pull Off  (b) Bend (r) Release (v) Vibrato

Stave 1:

E|-------------------------------------------------------------------------------
B|-------------------------------------------------------------------------------
G|-------------------------------------------------------------------------------
D|--5--5--7--5--7b8--5--7--5--7b5--5--5--5--5--5--5--5--7b8--5--7----------5-----
A|-----------------------------------------------------------------7v--/7-----7--
E|-------------------------------------------------------------------------------

Stave 2:

E|-----------------------------------------------------------
B|--8b10--8--8-----7--8/12--12b14--12--10------10------------
G|--------------9--------------------------12------11--9--9--
D|-----------------------------------------------------------
A|-----------------------------------------------------------
E|-----------------------------------------------------------

Stave 3:

E|------------------------------------------------------------------------------------------------------------
B|------------------------------------------------15----------------15b17--15--12--15-------------------------
G|--0/12--12--14p12--12--14p12--12--14p12--14b16------14--12h14p12---------------------12--12b14--------------
D|------------------------------------------------------------------------------------------------14--12--14--
A|------------------------------------------------------------------------------------------------------------
E|------------------------------------------------------------------------------------------------------------

Stave 4:

E|--------------------------------------------------12--------------------12--12--12-------------
B|------12--15b17b15--17b19b17----------15--15--15------12--15p12--14p12--------------12--12b14--
G|--14--------------------------16--14-----------------------------------------------------------
D|-----------------------------------------------------------------------------------------------
A|-----------------------------------------------------------------------------------------------
E|-----------------------------------------------------------------------------------------------

Stave 5:

E|-------------------------------------------------------15--17b19--17--15--19b21b19--17------17--
B|------15------15------15--12b14b12--------------12/17-----------------------------------20------
G|--16------16------16----------------------------------------------------------------------------
D|------------------------------------14--12--14--------------------------------------------------
A|------------------------------------------------------------------------------------------------
E|------------------------------------------------------------------------------------------------

Stave 6:

E|------------
B|--20b22b20--
G|------------
D|------------
A|------------
E|------------

http://www.guitartabcreator.com
Guitar Tab Creator is intended to store guitar tab created through the tool. It currently does not support in-line text editing. Any text you place in here will be lost. If you need to comment on your tab, please use the "Tab Notes" section located below.