Sound will begin in 5 seconds

I Knew You Were Trouble

Chords
01234567891011121314151617181920212223
E
B
G
D
A
E
B
0 1 2 3 4 5 6 7 8 9 10 11 12 13 14 15 16 17 18 19 20 21 22 23
Song Science #1: How Pros Use 6 Chords to Write Hit Songs
(/) Slide Up  (\) Slide Down  (h) Hammer On  (p) Pull Off  (b) Bend (r) Release (v) Vibrato

Stave 1:

E|--------------------
B|-11-x-x-11-x-x-11-x-
G|--------------------
D|--------------------
A|-9--x-x-9--x-x-9--x-
E|--------------------

Stave 2:

E|-----------------
B|-9-x-x-9-x-x-9-x-
G|-----------------
D|-----------------
A|-8-x-x-8-x-x-8-x-
E|-----------------

Stave 3:

E|-----------------
B|-7-x-x-7-x-x-7-x-
G|-----------------
D|-----------------
A|-6-x-x-6-x-x-6-x-
E|-----------------

Stave 4:

E|-----------------
B|-4-x-x-4-x-x-4-x-
G|-----------------
D|-----------------
A|-2-x-x-2-x-x-2-x-
E|-----------------

http://www.guitartabcreator.com
Guitar Tab Creator is intended to store guitar tab created through the tool. It currently does not support in-line text editing. Any text you place in here will be lost. If you need to comment on your tab, please use the "Tab Notes" section located below.