Sound will begin in 5 seconds

See major Sweater harmony

01234567891011121314151617181920212223
E
B
G
D
A
E
B
0 1 2 3 4 5 6 7 8 9 10 11 12 13 14 15 16 17 18 19 20 21 22 23
(/) Slide Up  (\) Slide Down  (h) Hammer On  (p) Pull Off  (b) Bend (r) Release (v) Vibrato

Stave 1:

E|--------------12--15--12----------------------12--17--12----------------------------------------------
B|----------13--------------13--------------13--------------13----------------------13--16--13----------
G|------12----------------------12------14----------------------14--14----------13--------------13------
D|--14------------------------------14--------------------------------------13----------------------13--
A|----------------------------------------------------------------------15------------------------------
E|------------------------------------------------------------------------------------------------------

Stave 2:

E|------------------12--
B|--------------11------
G|----------12----------
D|------14--------------
A|--13------------------
E|----------------------

Stave 3:

E|---------------------------------------------------------------------------------------------
B|-----------------10---------------------------10-----------------------------11--------------
G|----------9----------9------9---------------------9------------------12----------12------12--
D|------10-----10---------10------------10-------------10----------14------14----------14------
A|--12---------------------------8--12------12-------------12--13------------------------------
E|---------------------------------------------------------------------------------------------

Stave 4:

E|----------------------------------
B|--------------12--------------10--
G|----------11--------------10------
D|------13--------------12----------
A|--14--------------13--------------
E|----------------------------------

Stave 5:

E|-----------------------------------------------8-----------------------------11--------------
B|-----------------10-------------------------------9------------------13----------13----------
G|----------9----------9------9----------10------------10------------------12----------12------
D|------10-----10---------10---------10------10------------10------13----------------------13--
A|--12---------------------------11----------------------------15------------------------------
E|---------------------------------------------------------------------------------------------

Stave 6:

E|--------------------------------------------------------------------------------------------------
B|--------------12--------------13--------------12--------------13--------------12--------------13--
G|----------11--------------12--------------11--------------12--------------11--------------12------
D|------13--------------14--------------13--------------14--------------13--------------14----------
A|--14--------------15--------------14--------------15--------------14--------------15--------------
E|--------------------------------------------------------------------------------------------------

Stave 7:

E|------------------------------------------19--
B|--------------15--------------16--17--19------
G|----------14--------------16------------------
D|------15--------------16----------------------
A|--17--------------19--------------------------
E|----------------------------------------------

http://www.guitartabcreator.com
Guitar Tab Creator is intended to store guitar tab created through the tool. It currently does not support in-line text editing. Any text you place in here will be lost. If you need to comment on your tab, please use the "Tab Notes" section located below.