back on the bottle 0:00 - 0:43

01234567891011121314151617181920212223
E
B
G
D
A
E
B
0 1 2 3 4 5 6 7 8 9 10 11 12 13 14 15 16 17 18 19 20 21 22 23
(/) Slide Up  (\) Slide Down  (h) Hammer On  (p) Pull Off  (b) Bend (r) Release (v) Vibrato

Stave 1:

E|--9--7-----0-----------3----------------------------------------------
B|--------8-----4--3----------------------------------------------------
G|--------------------5-----5--4--2-----2--0-----0----------------------
D|-----------------------------------4--------4-----4--2--0-----0-------
A|-----------------------------------------------------------3-----3b4--
E|----------------------------------------------------------------------

Stave 2:

E|--------------------------------------------------------------------------------------------------
B|--------------------------------------------------------------------------------------------------
G|--2-----2-----2-----2-----2--------------2--------------2--------------2--------------2-----------
D|--0-----0-----0-----0-----0--------------2--------------2--------------2--------------2-----------
A|-----3-----3-----3-----3-----3-----0-----------------0--------------0--------------0--------------
E|--------------------------------------------0--0--3--------0--0--3--------0--0--3--------0--0--3--

Stave 3:

E|------------------------------------------------------------------------------------------------------------
B|--------------------------------------------------------------------------3-------3-------3-----3--------3--
G|--------2-----------------2-----------------2-----------------2-----------2-------2-------2-----2--------2--
D|--------2-----------------2-----------------2-----------------2--2-----0-----0h5-----5p0-----0-----0--5-----
A|--0-----------------0-----------------0-----------------0-----------3---------------------------------------
E|-----------0--0--3-----------0--0--3-----------0--0--3------------------------------------------------------

Stave 4:

E|-----------------------------------------------------------------------
B|-----5--------5--------5--------5--------5--------5--------5--------5--
G|-----4--------4--------4--------4--------4--------4--------4--------4--
D|--2-----2--2-----2--2-----2--2-----2--2-----2--2-----2--2-----2--2-----
A|-----------------------------------------------------------------------
E|-----------------------------------------------------------------------

Stave 5:

E|---------------------------------------
B|---------------------------------------
G|-----2-----0--2p0-----2-----2-----0h2--
D|-----2-----0--2-------2-----2-----0-2--
A|--0-----0----------0-----0-----0-------
E|---------------------------------------

Stave 6:

E|-------------------------------------------
B|-------------------------------------------
G|--------2--------2--------2--------2-------
D|--------2--------2--------2--------2-------
A|--0--------0--0-----0--0-----0--0-----3b4--
E|-------------------------------------------

Stave 7:

E|------------------------------------
B|-----3-------3-------3-----3-----3--
G|-----2-------2-------2-----2-----2--
D|--0-----0h5-----5p0-----0-----0-----
A|------------------------------------
E|------------------------------------

Stave 8:

E|-------------------------------------------------------------------------------------------
B|-------------------------------------------------------------------------------------------
G|-----4-----4-----4-----4-----------------------------------4-----4-----4-------------------
D|-----2-----2-----2-----2-----------------------------------2-----2-----2-------------------
A|--------2-----------2-----------------------------------------2-------------------------0--
E|--0-----------0-----------------------------------------0-----------0-----0--0--3b4--------

Stave 9:

E|--------------------------------------------------------------------------
B|--3-----------------------------------------------3-----------------------
G|--2-----------2-----------------------2-----------2-----------2-----------
D|--0--0--------2-----------2-----------2-----------0--0--------2-----------
A|--------4--2--0--0--------2-----------0--0--2--4--------4--2--0--0--------
E|--------------------4--2--0--0--2--4--------------------------------4--2--

Stave 10:

E|--3-----------------
B|-----3--1--3--1-----
G|-----------------2--
D|--------------------
A|--------------------
E|--------------------

Stave 11:

E|--5--3--7--5--3--5------------------------5--3--7--5--3--5--7--5--9--7--5--7--------------------
B|---------------------------------------------------------------------------------7--5--8--7--5--
G|--------------------9--7--11--9--7--9-----------------------------------------------------------
D|------------------------------------------------------------------------------------------------
A|------------------------------------------------------------------------------------------------
E|------------------------------------------------------------------------------------------------

Stave 12:

E|---------------------
B|--9--7--10--9--7-----
G|---------------------
D|---------------------
A|---------------------
E|---------------------

							http://www.guitartabcreator.com
Chords

Instruments
{"strings":[[[9,7,".",0,".",".",".",3,".",".",".",".",".",".",".",".",".",".",".",".",".",".",".","."],[".",".",8,".",4,3,".",".",".",".",".",".",".",".",".",".",".",".",".",".",".",".",".","."],[".",".",".",".",".",".",5,".",5,4,2,".",2,0,".",0,".",".",".",".",".",".",".","."],[".",".",".",".",".",".",".",".",".",".",".",4,".",".",4,".",4,2,0,".",0,".",".","."],[".",".",".",".",".",".",".",".",".",".",".",".",".",".",".",".",".",".",".",3,".",3,"b",4],[".",".",".",".",".",".",".",".",".",".",".",".",".",".",".",".",".",".",".",".",".",".",".","."]],[[".",".",".",".",".",".",".",".",".",".","_",".","_",".",".",".",".",".",".",".",".",".",".",".",".",".",".",".",".",".",".","."],[".",".",".",".",".",".",".",".",".",".","_",".","_",".",".",".",".",".",".",".",".",".",".",".",".",".",".",".",".",".",".","."],[2,".",2,".",2,".",2,".",2,".","_",".","_",2,".",".",".",".",2,".",".",".",".",2,".",".",".",".",2,".",".","."],[0,".",0,".",0,".",0,".",0,".","_",".","_",2,".",".",".",".",2,".",".",".",".",2,".",".",".",".",2,".",".","."],[".",3,".",3,".",3,".",3,".",3,"_",0,"_",".",".",".",".",0,".",".",".",".",0,".",".",".",".",0,".",".",".","."],[".",".",".",".",".",".",".",".",".",".","_",".","_",".",0,0,3,".",".",0,0,3,".",".",0,0,3,".",".",0,0,3]],[[".","_",".",".",".",".",".","_",".",".",".",".",".","_",".",".",".",".",".","_",".",".",".",".",".",".",".",".",".",".",".",".",".",".",".",".",".","."],[".","_",".",".",".",".",".","_",".",".",".",".",".","_",".",".",".",".",".","_",".",".",".",".",3,".",".",".",3,".",".",".",3,".",3,".",".",3],[".","_",2,".",".",".",".","_",2,".",".",".",".","_",2,".",".",".",".","_",2,".",".",".",2,".",".",".",2,".",".",".",2,".",2,".",".",2],[".","_",2,".",".",".",".","_",2,".",".",".",".","_",2,".",".",".",".","_",2,2,".",0,".",0,"h",5,".",5,"p",0,".",0,".",0,5,"."],[0,"_",".",".",".",".",0,"_",".",".",".",".",0,"_",".",".",".",".",0,"_",".",".",3,".",".",".",".",".",".",".",".",".",".",".",".",".",".","."],[".","_",".",0,0,3,".","_",".",0,0,3,".","_",".",0,0,3,".","_",".",".",".",".",".",".",".",".",".",".",".",".",".",".",".",".",".","."]],[[".",".",".",".",".",".",".",".",".",".",".",".",".",".",".",".",".",".",".",".",".",".","."],[".",5,".",".",5,".",".",5,".",".",5,".",".",5,".",".",5,".",".",5,".",".",5],[".",4,".",".",4,".",".",4,".",".",4,".",".",4,".",".",4,".",".",4,".",".",4],[2,".",2,2,".",2,2,".",2,2,".",2,2,".",2,2,".",2,2,".",2,2,"."],[".",".",".",".",".",".",".",".",".",".",".",".",".",".",".",".",".",".",".",".",".",".","."],[".",".",".",".",".",".",".",".",".",".",".",".",".",".",".",".",".",".",".",".",".",".","."]],[[".",".",".",".",".",".",".",".",".",".",".",".",".",".","."],[".",".",".",".",".",".",".",".",".",".",".",".",".",".","."],[".",2,".",0,2,"p",0,".",2,".",2,".",0,"h",2],[".",2,".",0,2,".",".",".",2,".",2,".",0,".",2],[0,".",0,".",".",".",".",0,".",0,".",0,".",".","."],[".",".",".",".",".",".",".",".",".",".",".",".",".",".","."]],[[".","_",".",".",".",".",".",".",".",".",".",".",".",".","."],[".","_",".",".",".",".",".",".",".",".",".",".",".",".","."],[".","_",2,".",".",2,".",".",2,".",".",2,".",".","."],[".","_",2,".",".",2,".",".",2,".",".",2,".",".","."],[0,"_",".",0,0,".",0,0,".",0,0,".",3,"b",4],[".","_",".",".",".",".",".",".",".",".",".",".",".",".","."]],[[".",".",".",".",".",".",".",".",".",".",".",".",".","."],[".",3,".",".",".",3,".",".",".",3,".",3,".",3],[".",2,".",".",".",2,".",".",".",2,".",2,".",2],[0,".",0,"h",5,".",5,"p",0,".",0,".",0,"."],[".",".",".",".",".",".",".",".",".",".",".",".",".","."],[".",".",".",".",".",".",".",".",".",".",".",".",".","."]],[[".",".",".",".",".",".",".",".","_","_","_","_","_","_","_","_","_","_",".",".",".",".",".",".",".",".",".",".",".",".","."],[".",".",".",".",".",".",".",".","_","_","_","_","_","_","_","_","_","_",".",".",".",".",".",".",".",".",".",".",".",".","."],[".",4,".",4,".",4,".",4,"_","_","_","_","_","_","_","_","_","_",".",4,".",4,".",4,".",".",".",".",".",".","."],[".",2,".",2,".",2,".",2,"_","_","_","_","_","_","_","_","_","_",".",2,".",2,".",2,".",".",".",".",".",".","."],[".",".",2,".",".",".",2,".","_","_","_","_","_","_","_","_","_","_",".",".",2,".",".",".",".",".",".",".",".",".",0],[0,".",".",".",0,".",".",".","_","_","_","_","_","_","_","_","_","_",0,".",".",".",0,".",0,0,3,"b",4,".","."]],[[".",".",".",".",".",".",".",".",".",".",".",".",".",".",".",".",".",".",".",".",".",".",".","."],[3,".",".",".",".",".",".",".",".",".",".",".",".",".",".",".",3,".",".",".",".",".",".","."],[2,".",".",".",2,".",".",".",".",".",".",".",2,".",".",".",2,".",".",".",2,".",".","."],[0,0,".",".",2,".",".",".",2,".",".",".",2,".",".",".",0,0,".",".",2,".",".","."],[".",".",4,2,0,0,".",".",2,".",".",".",0,0,2,4,".",".",4,2,0,0,".","."],[".",".",".",".",".",".",4,2,0,0,2,4,".",".",".",".",".",".",".",".",".",".",4,2]],[[3,".",".",".",".","."],[".",3,1,3,1,"."],[".",".",".",".",".",2],[".",".",".",".",".","."],[".",".",".",".",".","."],[".",".",".",".",".","."]],[[5,3,7,5,3,5,".",".",".",".",".",".","_",5,3,7,5,3,5,7,5,9,7,5,7,"_",".",".",".",".","."],[".",".",".",".",".",".",".",".",".",".",".",".","_",".",".",".",".",".",".",".",".",".",".",".",".","_",7,5,8,7,5],[".",".",".",".",".",".",9,7,11,9,7,9,"_",".",".",".",".",".",".",".",".",".",".",".",".","_",".",".",".",".","."],[".",".",".",".",".",".",".",".",".",".",".",".","_",".",".",".",".",".",".",".",".",".",".",".",".","_",".",".",".",".","."],[".",".",".",".",".",".",".",".",".",".",".",".","_",".",".",".",".",".",".",".",".",".",".",".",".","_",".",".",".",".","."],[".",".",".",".",".",".",".",".",".",".",".",".","_",".",".",".",".",".",".",".",".",".",".",".",".","_",".",".",".",".","."]],[[".",".",".",".",".","_"],[9,7,10,9,7,"_"],[".",".",".",".",".","_"],[".",".",".",".",".","_"],[".",".",".",".",".","_"],[".",".",".",".",".","_"]]],"numberofstrings":6,"notes":["E","B","G","D","A","E","B"],"capo":0,"stringnotes":["E4","B3","G3","D3","A2","E2"],"comments":["Stave 1:","Stave 2:","Stave 3:","Stave 4:","Stave 5:","Stave 6:","Stave 7:","Stave 8:","Stave 9:","Stave 10:","Stave 11:","Stave 12:"],"timing":[["W","W","W","W","W","W","W","W","W","W","W","W","W","W","W","W","W","W","W","W","W","W","W",null,"W","W",null,null,null,null,"W"],["W","W","W","W","W","W","W","W","W","W","W","W","W","W","W","W","W","W","W","W","W","W","W","W","W","W","W","W","W","W","W","W","W","W"],["W","W","W","W","W","W","W",null,"W","W","W","W","W",null,"W","W","W","W","W",null,"W","W","W","W","W","W","W","W","W","W",null,"W","W","W","W","W","W","W","W"],["W","W","W","W","W","W","W","W","W","W","W","W","W","W","W","W","W","W","W","W","W","W","W"],["W","W","W","W","W","W","W","W","W","W","W","W","W",null,"W"],["W",null,"W","W","W","W","W","W","W","W","W","W","W",null,"W",null,"W","W","W","W","W","W",null,"W","W"],["W","W","W",null,"W","W","W",null,"W","W","W","W","W","W"],["W","W","W","W","W","W","W","W",null,null,null,null,null,null,null,null,null,null,"W","W","W","W","W","W","W","W","W",null,"W","W"],["W","W","W","W","W","W","W","W","W","W","W","W","W","W","W","W","W","W","W","W","W","W","W","W"],["W","W","W","W","W","W"],["W","W","W","W","W","W","W","W","W","W","W","W",null,"W","W","W","W","W","W","W","W","W","W","W","W",null,"W","W","W","W","W","W"],["W","W","W","W","W"]],"timingvisible":false,"tabcounter":6,"stave":11,"totalstaves":12,"instrument":"6guitar","selectedtuning":"6_standard","version":"13"}

Member for

5 months 3 weeks
Submitted by claycrowley on Thu, 2020-12-03 13:25