Sound will begin in 5 seconds

O Come O Come Emanuel

Chords
01234567891011121314151617181920212223
E
B
G
D
A
E
B
0 1 2 3 4 5 6 7 8 9 10 11 12 13 14 15 16 17 18 19 20 21 22 23
Song Science #1: How Pros Use 6 Chords to Write Hit Songs
(/) Slide Up  (\) Slide Down  (h) Hammer On  (p) Pull Off  (b) Bend (r) Release (v) Vibrato

(W|WW) Whole (H|HH) Half (Q|QQ) Quarter (E|EE) 8th (S|SS) 16th (T|TT) 32nd (X|XX) 64th

Stave 1:
t: E E E E E E E E E E E E E E E E E E E E E E E E E E E E
E|--------------------------------------------------------------------------------------
B|--------------------------------------------------------------------------------------
G|--------------------------------------------------------------------------------------
D|--------------------------------------------------------------------------------------
A|--------------------------------------------------------------------------------------
E|--0--0--0--0--0--0--0--0--0--0--0--0--0--0--0--0--0--0--0--0--0--0--0--0--0--0--0--0--

Stave 2:
t: E E E E E E E E E E E E E E E E E E E E E E E E E E E E E E E E
E|--------------------------------------------------------------------------------------------------
B|--------------------------------------------------------------------------------------------------
G|--------------------------------------------------------------------------------------------------
D|--------------------------------------------------------------------------------------------------
A|--------------------------------------------------------------------------------------------------
E|--0--0--0--0--0--0--0--0--0--0--0--0--0--0--0--0--0--0--0--0--0--0--0--0--0--0--0--0--0--0--0--0--

Stave 3:
t: E E E E E E E E E E E E E E E E E E E E E E Q E E Q E E Q E E Q
E|--------------------------------------------------------------------------------------------------
B|--------------------------------------------------------------------------------------------------
G|--------------------------------------------------------------------------------------------------
D|--------------------------------------------------------------------------------------------------
A|--------------------------------------------------------------------------------------------------
E|--0--0--0--0--0--0--0--0--0--0--0--0--0--0--0--0--0--0--0--0--0--0--0--0--0--0--0--0--0--0--0--0--

Stave 4:
t: E E Q E E Q E E Q E E Q E E Q E E E E H Q Q
E|--------------------------------------------------------------------
B|--------------------------------------------------------------------
G|--------------------------------------------------------------------
D|--------------------------------------------------------------------
A|--------------------------------------------------------------------
E|--0--0--0--0--0--0--0--0--0--0--0--0--0--0--0--0--0--0--0--0--0--0--

Stave 5:
t: Q Q H Q Q Q Q E E Q E E Q E E Q E E Q H Q Q
E|--------------------------------------------------------------------
B|--------------------------------------------------------------------
G|--------------------------------------------------------------------
D|--------------------------------------------------------------------
A|--------------------------------------------------------------------
E|--0--0--0--0--0--0--0--0--0--0--0--0--0--0--0--0--0--0--0--0--0--0--

Stave 6:
t: E E Q H Q Q E E Q E E Q E E E E E E E E E E E E E E E E
E|--------------------------------------------------------------------------------------
B|--------------------------------------------------------------------------------------
G|--------------------------------------------------------------------------------------
D|--------------------------------------------------------------------------------------
A|--------------------------------------------------------------------------------------
E|--0--0--0--0--0--0--0--0--0--0--0--0--0--0--0--0--0--0--0--0--0--0--0--0--0--0--0--0--

Stave 7:
t: E E E E E E E E E E E E E E E E E E E E E E E E E E E E E E E E
E|--------------------------------------------------------------------------------------------------
B|--------------------------------------------------------------------------------------------------
G|--------------------------------------------------------------------------------------------------
D|--------------------------------------------------------------------------------------------------
A|--------------------------------------------------------------------------------------------------
E|--0--0--0--0--0--0--0--0--0--0--0--0--0--0--0--0--0--0--0--0--0--0--0--0--0--0--0--0--0--0--0--0--

Stave 8:
t: E E E E H Q Q Q Q H Q Q E E E E E E Q Q
E|--------------x--x--x--x--x--x--x--x--------------------x--x--
B|--------------x--x--x--x--x--x--x--x--------------------x--x--
G|--------------0--2--2--0--0--0--0--0--------------------x--x--
D|--------------2--2--2--2--2--2--2--2-----------0--------0--0--
A|--------------2--0--0--2--2--2--3--3--3--2--3-----3--0--2--2--
E|--0--0--0--0--0--0--0--0--0--0--0--0--------------------3--3--

Stave 9:
t: Q Q H Q Q E E E E E E E E E E E E E Q E E Q E E Q
E|-----------------------------------------------------------------------------
B|--0--0-----------------------------------------------------------------------
G|--2--2-----------------------------------------------------2--2--2-----------
D|--0--0-----------2--2--2--2--2--2--2--2--2--2--2--2--2--2--4--4--4--2--2--2--
A|--2--2--------2--2--2--2--2--3--3--3--3--2--2--2--2--2--2--0--0--0--2--2--2--
E|--------0--2-----0--0--0--0--0--0--0--0--0--0--0--0--0--0-----------0--0--0--

Stave 10:
t: Q Q Q Q H Q Q E E Q E E Q E E Q Q Q Q Q H Q Q
E|-----------------------------------------------------------------------
B|-----------------------------------------------------------------------
G|--------------------------------2--2--2--------------------------------
D|--2--4--2--4--0--2--4--2--2--2--4--4--4--2--2--2--2--4--2--4--0--2--4--
A|--0--2--x--x--x--0--2--2--2--2--0--0--0--2--2--2--0--2--x--x--x--0--2--
E|--------0--2--3--------0--0--0-----------0--0--0--------0--2--3--------

Stave 11:
t: E E E E E E E E E E E E E E E E E E E E
E|--------------------------------------------------------------
B|--------------------------------------------------------------
G|--------------------------------------------------------------
D|--------------------------------------------------------------
A|--------------------------------------------------------------
E|--0--0--0--0--0--0--0--0--0--0--0--0--0--0--0--0--0--0--0--0--

Stave 12:
t: E E E E E E E E E E E E E E E E E E E E E E E E E E E E E E E E
E|--------------------------------------------------------------------------------------------------
B|--------------------------------------------------------------------------------------------------
G|--------------------------------------------------------------------------------------------------
D|--------------------------------------------------------------------------------------------------
A|--------------------------------------------------------------------------------------------------
E|--0--0--0--0--0--0--0--0--0--0--0--0--0--0--0--0--0--0--0--0--0--0--0--0--0--0--0--0--0--0--0--0--

Stave 13:
t: E E Q E E Q E E Q Q Q Q Q H Q Q E E E E E E E E E E Q
E|-----------------------------------------------------------------------------------
B|-----------------------------------------------------------------------------------
G|-----------2--2--2--------------------------------------------------------2--2--2--
D|-----------4--4--4--2--2--2--2--4--2--4--0--2--4--2-----------------------4--4--4--
A|-----------0--0--0--2--2--2--0--2--x--x--x--0--2--------------------0--2--0--0--0--
E|--0--0--0-----------0--0--0--------0--2--3-----------0--2--0--3--0-----------------

Stave 14:
t: E E Q Q Q Q Q H E E E E E E E E E E E E E E E E E E E E
E|--------------------------------------------------------------------------------------
B|--------------------------------------------------------------------------------------
G|--------------------------------------------------------------------------------------
D|--2--2--2--2--4--2--4--0--------------------------------------------------------------
A|--2--2--2--0--2--x--x--x--0--0--0--0--2--2--2--2--------------------------------------
E|--0--0--0--------0--2--3--------------------------0--0--0--0--0--0--0--0--0--0--0--0--

Stave 15:
t: E E E E E E E E E E E E E E E E E E E E E E E E E E Q E E Q E E Q
E|-----------------------------------------------------------------------------------------------------
B|-----------------------------------------------------------------------------------------------------
G|-----------------------------------------------------------------------------------------------------
D|-----------------------------------------------------------------------------------------------------
A|-----------------------------------------------------------------------------------------------------
E|--0--0--0--0--0--0--0--0--0--0--0--0--0--0--0--0--0--0--0--0--0--0--0--0--0--0--0--0--0--0--0--0--0--

Stave 16:
t: E E Q E E E E E E E E E E E E E E E E E E E E E E E E E E E E
E|-----------------------------------------------------------------------------------------------
B|-----------------------------------------------------------------------------------------------
G|-----------------------------------------------------------------------------------------------
D|-----------------------------------------------------------------------------------------------
A|-----------------------------------------------------------------------------------------------
E|--0--0--0--0--0--0--0--0--0--0--0--0--0--0--0--0--0--0--0--0--0--0--0--0--0--0--0--0--0--0--0--

Stave 17:
t: E E E E E E E E E E E E E E E E E E E E E E E E E E E E E E E E H
E|--------------------------------------------------------------------------------------------------0--
B|--------------------------------------------------------------------------------------------------0--
G|--------------------------------------------------------------------------------------------------1--
D|--------------------------------------------------------------------------------------------------2--
A|--------------------------------------3--3--3--3--2--2--2--2--0--0--0--0--------------------------2--
E|--0--0--0--0--0--0--0--0--0--0--0--0--------------------------------------3--3--2--2--0--0--0--0--0--

http://www.guitartabcreator.com
Guitar Tab Creator is intended to store guitar tab created through the tool. It currently does not support in-line text editing. Any text you place in here will be lost. If you need to comment on your tab, please use the "Tab Notes" section located below.