Sweet Child Solo

01234567891011121314151617181920212223
E
B
G
D
A
E
B
0 1 2 3 4 5 6 7 8 9 10 11 12 13 14 15 16 17 18 19 20 21 22 23
(/) Slide Up  (\) Slide Down  (h) Hammer On  (p) Pull Off  (b) Bend (r) Release (v) Vibrato

Stave 1:

Eb|------------------------------------------------------------------12--12----------15--15--12------
Bb|----------------------------------12--12----------15--15--12--------------15--12--------------15--
Gb|--12--12----------14--14--12--------------14--12--------------14----------------------------------
Db|----------14--12--------------14------------------------------------------------------------------
Ab|--------------------------------------------------------------------------------------------------
Eb|--------------------------------------------------------------------------------------------------

Stave 2:

Eb|--15--14------12h15p12-----
Bb|----------15------------15b
Gb|---------------------------
Db|---------------------------
Ab|---------------------------
Eb|---------------------------

Stave 3:

Eb|--12------------12------------12------------12------------12------------12------------12------------
Bb|------15p12---------15p12--15b----15p12---------15p12--15b----15p12---------15p12--15b----15p12-----
Gb|-------------14b-------------------------14b-------------------------14b-------------------------14b
Db|----------------------------------------------------------------------------------------------------
Ab|----------------------------------------------------------------------------------------------------
Eb|----------------------------------------------------------------------------------------------------

Stave 4:

Eb|--15b18r15--15p12-------------------12-------------------------------------
Bb|-------------------15p12--15b17r15------15p12---------15-------------------
Gb|-----------------------------------------------14b16------16r14p12------12/
Db|--------------------------------------------------------------------14-----
Ab|---------------------------------------------------------------------------
Eb|---------------------------------------------------------------------------

							http://www.guitartabcreator.com
Chords

Instruments
{"strings":[[[".",".",".",".",".",".",".",".",".",".",".",".",".",".",".",".",12,12,".",".",15,15,12,"."],[".",".",".",".",".",".",".",".",12,12,".",".",15,15,12,".",".",".",15,12,".",".",".",15],[12,12,".",".",14,14,12,".",".",".",14,12,".",".",".",14,".",".",".",".",".",".",".","."],[".",".",14,12,".",".",".",14,".",".",".",".",".",".",".",".",".",".",".",".",".",".",".","."],[".",".",".",".",".",".",".",".",".",".",".",".",".",".",".",".",".",".",".",".",".",".",".","."],[".",".",".",".",".",".",".",".",".",".",".",".",".",".",".",".",".",".",".",".",".",".",".","."]],[[15,14,".",12,"h",15,"p",12,".","."],[".",".",15,".",".",".",".",".",15,"b"],[".",".",".",".",".",".",".",".",".","."],[".",".",".",".",".",".",".",".",".","."],[".",".",".",".",".",".",".",".",".","."],[".",".",".",".",".",".",".",".",".","."]],[[12,".",".",".",".",".",12,".",".",".",".",".",12,".",".",".",".",".",12,".",".",".",".",".",12,".",".",".",".",".",12,".",".",".",".",".",12,".",".",".",".","."],[".",15,"p",12,".",".",".",15,"p",12,15,"b",".",15,"p",12,".",".",".",15,"p",12,15,"b",".",15,"p",12,".",".",".",15,"p",12,15,"b",".",15,"p",12,".","."],[".",".",".",".",14,"b",".",".",".",".",".",".",".",".",".",".",14,"b",".",".",".",".",".",".",".",".",".",".",14,"b",".",".",".",".",".",".",".",".",".",".",14,"b"],[".",".",".",".",".",".",".",".",".",".",".",".",".",".",".",".",".",".",".",".",".",".",".",".",".",".",".",".",".",".",".",".",".",".",".",".",".",".",".",".",".","."],[".",".",".",".",".",".",".",".",".",".",".",".",".",".",".",".",".",".",".",".",".",".",".",".",".",".",".",".",".",".",".",".",".",".",".",".",".",".",".",".",".","."],[".",".",".",".",".",".",".",".",".",".",".",".",".",".",".",".",".",".",".",".",".",".",".",".",".",".",".",".",".",".",".",".",".",".",".",".",".",".",".",".",".","."]],[[15,"b",18,"r",15,15,"p",12,".",".",".",".",".",".",".",".",12,".",".",".",".",".",".",".",".",".",".",".",".",".",".","."],[".",".",".",".",".",".",".",".",15,"p",12,15,"b",17,"r",15,".",15,"p",12,".",".",".",15,".",".",".",".",".",".",".","."],[".",".",".",".",".",".",".",".",".",".",".",".",".",".",".",".",".",".",".",".",14,"b",16,".",16,"r",14,"p",12,".",12,"/"],[".",".",".",".",".",".",".",".",".",".",".",".",".",".",".",".",".",".",".",".",".",".",".",".",".",".",".",".",".",14,".","."],[".",".",".",".",".",".",".",".",".",".",".",".",".",".",".",".",".",".",".",".",".",".",".",".",".",".",".",".",".",".",".","."],[".",".",".",".",".",".",".",".",".",".",".",".",".",".",".",".",".",".",".",".",".",".",".",".",".",".",".",".",".",".",".","."]]],"numberofstrings":6,"notes":["DsEb","AsBb","FsGb","CsDb","GsAb","DsEb"],"capo":0,"stringnotes":["Eb3","Bb2","Gb2","Db2","Ab1","Eb1"],"comments":["Stave 1:","Stave 2:","Stave 3:","Stave 4:","Stave 5:"],"timing":[["W","W","W","W","W","W","W","W","W","W","W","W","W","W","W","W","W","W","W","W","W","W","W","W"],["W","W","W","W",null,"W",null,"W","W"],["W","W",null,"W","W",null,"W","W",null,"W","W",null,"W","W",null,"W","W",null,"W","W",null,"W","W",null,"W","W",null,"W","W",null,"W","W",null,"W","W",null,"W","W",null,"W","W"],["W","W",null,"W","W"],["W",null,"W",null,"W","W","W","W","W",null,"W","W",null,"W",null,"W","W","W",null,"W","W",null,"W","W","W","W","W",null,"W","W","W"]],"timingvisible":false,"tabcounter":32,"stave":3,"totalstaves":4,"instrument":"6guitar","selectedtuning":"Half Step Down","version":"13"}

Member for

1 month 2 weeks
Submitted by cjoaquin on Sun, 2021-01-17 01:00