Stairway Solo

01234567891011121314151617181920212223
E
B
G
D
A
E
B
0 1 2 3 4 5 6 7 8 9 10 11 12 13 14 15 16 17 18 19 20 21 22 23
(/) Slide Up  (\) Slide Down  (h) Hammer On  (p) Pull Off  (b) Bend (r) Release (v) Vibrato

Stave 1:

Eb|-------5----------------------------
Bb|----------8p5-----------------------
Gb|--7b9----------7p5-----7p5----------
Db|--------------------7-------7p5-----
Ab|---------------------------------8--
Eb|------------------------------------

Stave 2:

Eb|--------8--8--------------------------------------------------------
Bb|--8\10--------13b15r13--13--10---------13--15p13--------------------
Gb|--------------------------------12/14-------------14p12------12h14--
Db|---------------------------------------------------------14---------
Ab|--------------------------------------------------------------------
Eb|--------------------------------------------------------------------

Stave 3:

Eb|-------5---------------------------------------------
Bb|----------8p5----------------------------------------
Gb|--7b9----------7p5-----7p5---------------5--5--5--0--
Db|--------------------7-------7p5-----5h7--------------
Ab|---------------------------------7-------------------
Eb|-----------------------------------------------------

Stave 4:

Eb|--5-------------------------------------
Bb|-----8p5--------------------------------
Gb|----------7p5-----5h7p5-----------------
Db|---------------7---------7--5--7--5-----
Ab|-------------------------------------8--
Eb|----------------------------------------

							http://www.guitartabcreator.com
Chords

Instruments
{"strings":[[[".",".",".",5,".",".",".",".",".",".",".",".",".",".",".",".",".","."],[".",".",".",".",8,"p",5,".",".",".",".",".",".",".",".",".",".","."],[7,"b",9,".",".",".",".",7,"p",5,".",7,"p",5,".",".",".","."],[".",".",".",".",".",".",".",".",".",".",7,".",".",".",7,"p",5,"."],[".",".",".",".",".",".",".",".",".",".",".",".",".",".",".",".",".",8],[".",".",".",".",".",".",".",".",".",".",".",".",".",".",".",".",".","."]],[[".",".",".",8,8,".",".",".",".",".",".",".",".",".",".",".",".",".",".",".",".",".",".",".",".","."],[8,"\\",10,".",".",13,"b",15,"r",13,13,10,".",".",".",13,15,"p",13,".",".",".",".",".",".","."],[".",".",".",".",".",".",".",".",".",".",".",".",12,"/",14,".",".",".",".",14,"p",12,".",12,"h",14],[".",".",".",".",".",".",".",".",".",".",".",".",".",".",".",".",".",".",".",".",".",".",14,".",".","."],[".",".",".",".",".",".",".",".",".",".",".",".",".",".",".",".",".",".",".",".",".",".",".",".",".","."],[".",".",".",".",".",".",".",".",".",".",".",".",".",".",".",".",".",".",".",".",".",".",".",".",".","."]],[[".",".",".",5,".",".",".",".",".",".",".",".",".",".",".",".",".",".",".",".",".",".",".",".","."],[".",".",".",".",8,"p",5,".",".",".",".",".",".",".",".",".",".",".",".",".",".",".",".",".","."],[7,"b",9,".",".",".",".",7,"p",5,".",7,"p",5,".",".",".",".",".",".",".",5,5,5,0],[".",".",".",".",".",".",".",".",".",".",7,".",".",".",7,"p",5,".",5,"h",7,".",".",".","."],[".",".",".",".",".",".",".",".",".",".",".",".",".",".",".",".",".",7,".",".",".",".",".",".","."],[".",".",".",".",".",".",".",".",".",".",".",".",".",".",".",".",".",".",".",".",".",".",".",".","."]],[[5,".",".",".",".",".",".",".",".",".",".",".",".",".",".",".",".","."],[".",8,"p",5,".",".",".",".",".",".",".",".",".",".",".",".",".","."],[".",".",".",".",7,"p",5,".",5,"h",7,"p",5,".",".",".",".","."],[".",".",".",".",".",".",".",7,".",".",".",".",".",7,5,7,5,"."],[".",".",".",".",".",".",".",".",".",".",".",".",".",".",".",".",".",8],[".",".",".",".",".",".",".",".",".",".",".",".",".",".",".",".",".","."]]],"numberofstrings":6,"notes":["DsEb","AsBb","FsGb","CsDb","GsAb","DsEb"],"capo":0,"stringnotes":["Eb3","Bb2","Gb2","Db2","Ab1","Eb1"],"comments":["Stave 1:","Stave 2:","Stave 3:","Stave 4:"],"timing":[["W",null,"W","W","W",null,"W","W",null,"W","W","W",null,"W","W",null,"W","W"],["W",null,"W","W","W","W",null,"W",null,"W","W","W","W",null,"W","W","W",null,"W","W",null,"W","W","W",null,"W"],["W",null,"W","W","W",null,"W","W",null,"W","W","W",null,"W","W",null,"W","W","W",null,"W","W","W","W","W"],["W","W",null,"W","W",null,"W","W","W",null,"W",null,"W","W","W","W","W","W"]],"timingvisible":false,"tabcounter":18,"stave":3,"totalstaves":4,"instrument":"6guitar","selectedtuning":"Half Step Down","version":"13"}

Member for

1 month 2 weeks
Submitted by cjoaquin on Tue, 2021-01-26 20:26