Slash Godfather Tokyo 1992

01234567891011121314151617181920212223
E
B
G
D
A
E
B
0 1 2 3 4 5 6 7 8 9 10 11 12 13 14 15 16 17 18 19 20 21 22 23
(/) Slide Up  (\) Slide Down  (h) Hammer On  (p) Pull Off  (b) Bend (r) Release (v) Vibrato

Stave 1:

Eb|------13------12h13p10------12------10h12p10------10-----
Bb|--13------13------------13------13------------13------13b
Gb|---------------------------------------------------------
Db|---------------------------------------------------------
Ab|---------------------------------------------------------
Eb|---------------------------------------------------------

Stave 2:

Eb|----------------------------------------------------------------------
Bb|--13--11h13p11\10--10h11p10------10-----------------------------------
Gb|-----------------------------13------13p12--13p12p10------12------10--
Db|------------------------------------------------------12------12------
Ab|----------------------------------------------------------------------
Eb|----------------------------------------------------------------------

							http://www.guitartabcreator.com
Chords

Instruments
{"strings":[[[".",13,".",12,"h",13,"p",10,".",12,".",10,"h",12,"p",10,".",10,".","."],[13,".",13,".",".",".",".",".",13,".",13,".",".",".",".",".",13,".",13,"b"],[".",".",".",".",".",".",".",".",".",".",".",".",".",".",".",".",".",".",".","."],[".",".",".",".",".",".",".",".",".",".",".",".",".",".",".",".",".",".",".","."],[".",".",".",".",".",".",".",".",".",".",".",".",".",".",".",".",".",".",".","."],[".",".",".",".",".",".",".",".",".",".",".",".",".",".",".",".",".",".",".","."]],[[".",".",".",".",".",".",".",".",".",".",".",".",".",".",".",".",".",".",".",".",".",".",".",".",".",".","."],[13,11,"h",13,"p",11,"\\",10,10,"h",11,"p",10,".",10,".",".",".",".",".",".",".",".",".",".",".","."],[".",".",".",".",".",".",".",".",".",".",".",".",".",13,".",13,"p",12,13,"p",12,"p",10,".",12,".",10],[".",".",".",".",".",".",".",".",".",".",".",".",".",".",".",".",".",".",".",".",".",".",".",12,".",12,"."],[".",".",".",".",".",".",".",".",".",".",".",".",".",".",".",".",".",".",".",".",".",".",".",".",".",".","."],[".",".",".",".",".",".",".",".",".",".",".",".",".",".",".",".",".",".",".",".",".",".",".",".",".",".","."]]],"numberofstrings":6,"notes":["DsEb","AsBb","FsGb","CsDb","GsAb","DsEb"],"capo":0,"stringnotes":["Eb3","Bb2","Gb2","Db2","Ab1","Eb1"],"comments":["Stave 1:","Stave 2:","Stave 3:"],"timing":[["W","W","W","W","W","W",null,"W","W","W","W","W",null,"W",null,"W","W","W","W"],["W","W",null,"W",null,"W",null,"W","W",null,"W",null,"W","W","W","W",null,"W","W",null,"W",null,"W","W","W","W","W","W"],["W"]],"timingvisible":false,"tabcounter":4,"totalstaves":2,"instrument":"6guitar","selectedtuning":"Half Step Down","version":"13"}

Member for

4 months
Submitted by cjoaquin on Sun, 2021-01-10 19:24