Easy Rock Riffs

Chords
01234567891011121314151617181920212223
E
B
G
D
A
E
B
0 1 2 3 4 5 6 7 8 9 10 11 12 13 14 15 16 17 18 19 20 21 22 23
(/) Slide Up  (\) Slide Down  (h) Hammer On  (p) Pull Off  (b) Bend (r) Release (v) Vibrato

Stave 1:

E|--------------------------------
B|--------------------------------
G|--------------------------------
D|--2--2--0--2--------------------
A|--------------2--1--0-----------
E|-----------------------0--3--0--

Stave 2:

E|--------------------------------------------
B|--------------------------------------------
G|--------------------------------------------
D|--------------------------------------------
A|--------0-----------1--0-----------0--------
E|--0--3--------0--3-----------0--3-----3--0--

Stave 3:

E|--------------------------
B|--------------------------
G|--------0-----------------
D|--2--2-----2--0-----------
A|-----------------3-----2--
E|--------------------------

Stave 4:

E|--------------------------------------------
B|--------------------------------------------
G|--------------------------------------------
D|--------------------------------------------
A|-----------0--0--3--2--3--2--3--------0--0--
E|--0--3--3-----------------------3--3--------

							http://www.guitartabcreator.com
Instruments
{"strings":[[[".",".",".",".",".",".",".",".",".","."],[".",".",".",".",".",".",".",".",".","."],[".",".",".",".",".",".",".",".",".","."],[2,2,0,2,".",".",".",".",".","."],[".",".",".",".",2,1,0,".",".","."],[".",".",".",".",".",".",".",0,3,0]],[[".",".",".","_",".",".",".",".","_",".",".",".",".","."],[".",".",".","_",".",".",".",".","_",".",".",".",".","."],[".",".",".","_",".",".",".",".","_",".",".",".",".","."],[".",".",".","_",".",".",".",".","_",".",".",".",".","."],[".",".",0,"_",".",".",1,0,"_",".",".",0,".","."],[0,3,".","_",0,3,".",".","_",0,3,".",3,0]],[[".",".",".",".",".",".","_","."],[".",".",".",".",".",".","_","."],[".",".",0,".",".",".","_","."],[2,2,".",2,0,".","_","."],[".",".",".",".",".",3,"_",2],[".",".",".",".",".",".","_","."]],[[".",".",".",".",".",".",".",".",".",".",".",".",".","."],[".",".",".",".",".",".",".",".",".",".",".",".",".","."],[".",".",".",".",".",".",".",".",".",".",".",".",".","."],[".",".",".",".",".",".",".",".",".",".",".",".",".","."],[".",".",".",0,0,3,2,3,2,3,".",".",0,0],[0,3,3,".",".",".",".",".",".",".",3,3,".","."]]],"numberofstrings":6,"notes":["E","B","G","D","A","E","B"],"capo":0,"stringnotes":["E4","B3","G3","D3","A2","E2"],"comments":["Stave 1:","Stave 2:","Stave 3:","Stave 4:"],"timing":[["W","W","W","W","W","W","W","W","W","W"],["W","W","W",null,"W","W","W","W",null,"W","W","W","W","W"],["W","W","W","W","W","W",null,"W"],["W","W","W","W","W","W","W","W","W","W","W","W","W","W"]],"timingvisible":false,"tabcounter":14,"stave":3,"totalstaves":4,"instrument":"6guitar","selectedtuning":"6_standard","version":"13"}

Member for

7 years 2 months
Submitted by cjlenox on Wed, 2020-05-20 14:58