Sound will begin in 5 seconds

Little Thing #12345

01234567891011121314151617181920212223
E
B
G
D
A
E
B
0 1 2 3 4 5 6 7 8 9 10 11 12 13 14 15 16 17 18 19 20 21 22 23
Song Science #1: How Pros Use 6 Chords to Write Hit Songs
(/) Slide Up  (\) Slide Down  (h) Hammer On  (p) Pull Off  (b) Bend (r) Release (v) Vibrato

Stave 1:

E|----------------------------------------------------------------|-----------------------------------
B|----------------------------------------------------------------|-----------------------------------
G|-------------9h10------------------------------9h10-------------|-------------9h10------------------
D|---------11--------11--9--11---------------11--------11--9--11--|---------11--------9--11--9--------
A|-----11-----------------------11-------11-----------------------|-----11----------------------11----
E|--9---------------------------------9---------------------------|--9--------------------------------

Stave 2:

E|------------------------------|----------------------------------|-----------------------------|--
B|------------------------------|----------------------------------|-----------------------------|--
G|-------------9h10-------------|-------------13--9----------------|-----------------------------|--
D|---------11--------11--9--11--|---------11---------11/13--9------|------------11--13--15--11v--|--
A|-----11-----------------------|-----11-----------------------11--|-----11/13-------------------|--
E|--9---------------------------|--9-------------------------------|--9--------------------------|--

Stave 3:

E|--------------------------------------------------------------
B|--------------------------------------------------------------
G|---------------------------------------13h15--13--10----------
D|--11h13/15v----11h13/15v----11h13/15v-----------------13--11--
A|--------------------------------------------------------------
E|------------------------------------------------------9---9---

http://www.guitartabcreator.com
Guitar Tab Creator is intended to store guitar tab created through the tool. It currently does not support in-line text editing. Any text you place in here will be lost. If you need to comment on your tab, please use the "Tab Notes" section located below.