Sound will begin in 5 seconds

`Shroud Of Eternal Darkness

Chords
01234567891011121314151617181920212223
E
B
G
D
A
E
B
0 1 2 3 4 5 6 7 8 9 10 11 12 13 14 15 16 17 18 19 20 21 22 23
Song Science #1: How Pros Use 6 Chords to Write Hit Songs
(/) Slide Up  (\) Slide Down  (h) Hammer On  (p) Pull Off  (b) Bend (r) Release (v) Vibrato

Stave 1:

E|--------------------------------------------------
B|--------------------------------------------------
G|--5--------------------------------------------7--
D|-----7-----7--6-----------7-----------7--6--6-----
A|--------0--------0--0--0-----0--7--0--------------
E|--------------------------------------------------

Stave 2:

E|--------------------------------------------------
B|--------------------------------------------------
G|--------------------------------------------------
D|--------------------------------------------------
A|--3--------3--2--------------------------2--2--3--
E|-----0--0--------0--0--1--4--0--0--1--4-----------

Stave 3:

E|--------------------------------------------------
B|--------------------------------------------------
G|--------------------------------------------------
D|--------------------------------------------------
A|--3--------3--2-----------------------------------
E|-----0--0--------0--0--1--4--0--0--4--5--0--5--7--

Stave 4:

E|----------------------------------------------------
B|----------------------------------------------------
G|----------------------------------------------------
D|--10--------10--9--2--2--3--6--2--2--3--6-----------
A|------0--0---------------------------------2--2--3--
E|----------------------------------------------------

Stave 5:

E|----------------------------------------------------
B|----------------------------------------------------
G|----------------------------------------------------
D|--10--------10--9--2--2--3--6--3--3--6--7--7--7--9--
A|------0--0------------------------------------------
E|----------------------------------------------------

Stave 6:

E|--------------
B|--------------
G|--9--4--5--7--
D|--7--3--3--3--
A|--------------
E|--------------

Stave 7:

E|--5--1--
B|--5--1--
G|--5--1--
D|--7--3--
A|--7--3--
E|--5--1--

Stave 8:

E|---------------------------------------------------------------
B|---------------------------------------------------------------
G|--10--12--10--9--10--12--10--9--10--12--10--9--10--12--10--14--
D|---------------------------------------------------------------
A|---------------------------------------------------------------
E|---------------------------------------------------------------

Stave 9:

E|--------------------------------------------------
B|--------------------------------------------------
G|--7--9--7--5--7--9--7--5--4--7--5--4--4--7--5--4--
D|--------------------------------------------------
A|--------------------------------------------------
E|--------------------------------------------------

Stave 10:

E|--8---5--
B|--8---5--
G|--10--5--
D|--10--7--
A|--8---7--
E|------5--

Stave 11:

E|-----5----------------------8-------------------
B|-----5----------------------8-------------------
G|-----5----------------------8-------------------
D|--7--7--7--9--10--9--7--10--10--10--10--12--10--
A|--7-----7--7--8---7--5--8-------10--10--12--10--
E|--5-----5--7--8---7--5--8-------8---8---10--8---

Stave 12:

E|--------------0--------------0-----------0-----------0--
B|------10---------------------------5-----------3--------
G|--12------12---------12---------7-----7-----5-----5-----
D|-----------------14------14-----------------------------
A|--------------------------------------------------------
E|--------------------------------------------------------

Stave 13:

E|----------------------------
B|----------------------------
G|----------------------------
D|--9--10--9--9--9--10--9--9--
A|--9--10--9--9--9--10--9--9--
E|--7--8---7--7--7--8---7--7--

Stave 14:

E|--------------------------------------
B|--------------------------------------
G|--------------------------------------
D|--12--11--12--14------------------11--
A|--10--9---10--12------------------11--
E|--10--9---10--12--10--10--10--10--9---

Stave 15:

E|------------------------------
B|------------------------------
G|------------------------------
D|-----12--14--12--12--8--8--8--
A|-----10--12--10--10--8--8--8--
E|-----10--12--10--10--6--6--6--

Stave 16:

E|------------------------------------------------------------
B|------------------------------------------------------------
G|------------------------------------------------------------
D|----------------------------12--11--12--14--12--11--12--11--
A|--9--7--9--10--9--7--9--10----------------------------------
E|------------------------------------------------------------

Stave 17:

E|-----------------
B|-----------------
G|-----------------
D|--7--5--4--3--8--
A|-----------------
E|-----------------

Stave 18:

E|----------------------------------------
B|----------------------------------------
G|--------------------------------11--10--
D|--9-----------------------------9---8---
A|--9-----------------------------9---8---
E|--7--7--7--7--7--7--8--8--7--7----------

Stave 19:

E|--------------------------
B|--------------------------
G|--------------------------
D|--------------------------
A|--------------------------
E|--0--0--0--1--1--1--0--0--

Stave 20:

E|--------
B|--------
G|--------
D|--6--3--
A|--6--3--
E|--4--1--

Stave 21:

E|--------------
B|--------------
G|--------------
D|--6--9--8--7--
A|--6--9--8--7--
E|--4--7--6--5--

Stave 22:

E|-----7-----------------------------------------------------------------------------------------------
B|--7-----10--8--7--8--10--12--14--12--15--------------------------------------------------------------
G|-----------------------------------------14--------------16--14--12--11--12--14--16--18--16--19--16--
D|---------------------------------------------12--14--16----------------------------------------------
A|-----------------------------------------------------------------------------------------------------
E|-----------------------------------------------------------------------------------------------------

Stave 23:

E|----------
B|--15--17--
G|----------
D|----------
A|----------
E|----------

Stave 24:

E|-------------------------------------------------------------------------------------------------
B|-----7--5-----------5--7--8--7--10---------------------------------------------------------------
G|--4--------7--4--7------------------9-------------11--9--7-----7--9--11--12--11--14--12----------
D|---------------------------------------9--11--12------------9----------------------------12--14--
A|-------------------------------------------------------------------------------------------------
E|-------------------------------------------------------------------------------------------------

http://www.guitartabcreator.com
Guitar Tab Creator is intended to store guitar tab created through the tool. It currently does not support in-line text editing. Any text you place in here will be lost. If you need to comment on your tab, please use the "Tab Notes" section located below.