Sound will begin in 5 seconds

New Whore of Babylon (Old Dahlia) Verse/Chorus/Breakdown

01234567891011121314151617181920212223
E
B
G
D
A
E
B
0 1 2 3 4 5 6 7 8 9 10 11 12 13 14 15 16 17 18 19 20 21 22 23
Song Science #1: How Pros Use 6 Chords to Write Hit Songs
(/) Slide Up  (\) Slide Down  (h) Hammer On  (p) Pull Off  (b) Bend (r) Release (v) Vibrato

Stave 1:

G|-------------12-------11---------------------------------------------------------
D|-------------------------------12----10------------------9-----8-----------------
A|-10-10-10-10----10-10----10-10----10----10-12-10---------------------9---7-------
E|-------------------------------------------------7-7-7-7---7-7---7-7---7---7-9-7-

Stave 2:

G|---------9-----8---------------------------------------------------------
D|---------------------9---7-----------------------------------------------
A|-7-7-7-7---7-7---7-7---7---7-9-7-----------------------------------------
E|---------------------------------8-8-8-8-8-8-8-8-10-10-10-10-10-10-10-10-

Stave 3:

G|-----------------------------------------------------------------
D|---------5-----5-----5-----5-------------9-----9-----9-----9-----
A|---------------------------------------------------------------9-
E|-3-3-3-3---3-3---3-3---3-3---3-5-7-7-7-7---7-7---7-7---7-7---7---

Stave 4:

G|---------9-----9-----9-----9---9---------9-----9-----9-----9---9-
D|-----------------------------------------------------------------
A|-7-7-7-7---7-7---7-7---7-7---7---7-7-7-7---7-7---7-7---7-7---7---
E|-----------------------------------------------------------------

Stave 5:

G|-------------------------
D|---------5-------5---5---
A|-----------------------0-
E|-3-3-3-3---3-3-3---3-----

Stave 6:

G|-----------------------------------------------5-
D|---------5-------5---5---------------------------
A|-------------------------0---------------5-6-3---
E|-3-3-3-3---3-3-3---3---3---7-7-7-7-7-7-7---------

Stave 7:

G|---------------------5---5---5---5---7---7---7---7-
D|-2-2-2-2-2-2-2-2-2---------------------------------
A|-------------------3---3---3---3---5---5---5---5---
E|---------------------------------------------------

http://www.guitartabcreator.com
Guitar Tab Creator is intended to store guitar tab created through the tool. It currently does not support in-line text editing. Any text you place in here will be lost. If you need to comment on your tab, please use the "Tab Notes" section located below.