Sound will begin in 5 seconds

Vuelve - El Tambor De La Tribu - Solo

Chords
01234567891011121314151617181920212223
E
B
G
D
A
E
B
0 1 2 3 4 5 6 7 8 9 10 11 12 13 14 15 16 17 18 19 20 21 22 23
(/) Slide Up  (\) Slide Down  (h) Hammer On  (p) Pull Off  (b) Bend (r) Release (v) Vibrato

Stave 1:

E|--------5-------5--5-------5--5-------5--5-------5--5--
B|-----5-----8b9--------8b9--------8b9--------8b9--------
G|--7----------------------------------------------------
D|-------------------------------------------------------
A|-------------------------------------------------------
E|-------------------------------------------------------

Stave 2:

E|-------------------------------------
B|--8--5-----5--5----5-----------------
G|--------7-----7b7--7b7--5-----5--7v--
D|---------------------------7---------
A|-------------------------------------
E|-------------------------------------

Stave 3:

E|-------------------------------------
B|-------------------------------------
G|--5-----5-----5b5-----5--5-----5--5--
D|-----7-----7----------5--5-----5--5--
A|-------------------7--------7--------
E|-------------------------------------

Stave 4:

E|-----------------------------------------------
B|------------------------------8--8v-----8--8v--
G|-----------5b5-----5--7--7/9---------9---------
D|-----5--7-------7------------------------------
A|--7--------------------------------------------
E|-----------------------------------------------

Stave 5:

E|-------------------8--10p8--10/12--12v--
B|-----8--10--8--10-----------------------
G|--9-------------------------------------
D|----------------------------------------
A|----------------------------------------
E|----------------------------------------

http://www.guitartabcreator.com
Guitar Tab Creator is intended to store guitar tab created through the tool. It currently does not support in-line text editing. Any text you place in here will be lost. If you need to comment on your tab, please use the "Tab Notes" section located below.