body talk solo

Chords

01234567891011121314151617181920212223
E
B
G
D
A
E
B
0 1 2 3 4 5 6 7 8 9 10 11 12 13 14 15 16 17 18 19 20 21 22 23
(/) Slide Up  (\) Slide Down  (h) Hammer On  (p) Pull Off  (b) Bend (r) Release (v) Vibrato

Stave 1:

E|----------------------------------------------------------------------------------------------------------------------------------------
B|--19b21r17------------17--17--17--------------------------------------------------------17--17------17--17------17--17------17--17------
G|---------------18--------------------18b20r18---------------------------------------16----------14----------16----------14----------13--
D|--------------------------------------------------18b20r14----------------14------------------------------------------------------------
A|---------------------------------------------------------------14--14/16----------------------------------------------------------------
E|----------------------------------------------------------------------------------------------------------------------------------------

Stave 2:

E|---------------------------------------12--14-----14b16r12-----14--15--16--17--15--16--12--12--12------12------10--10------
B|--17--17--13-----14b16r12----------12--------------------------------------------------------------12------10----------12--
G|---------------------------14--13------------------------------------------------------------------------------------------
D|---------------------------------------------------------------------------------------------------------------------------
A|---------------------------------------------------------------------------------------------------------------------------
E|---------------------------------------------------------------------------------------------------------------------------

Stave 3:

E|--
B|--
G|--
D|--
A|--
E|--

Stave 4:

E|-------------------------------------------------------------------------
B|--9--10--12--10--9b10r9------------------------17------17------17--------
G|----------------------------9-----------9--18------18------18------19b21r
D|-------------------------------9--9h11-----------------------------------
A|-------------------------------------------------------------------------
E|-------------------------------------------------------------------------

Stave 5:

E|------17------------------------21--17--19------------------------------
B|--19------19b21r19--17------17--------------19b21r19-----17------17--19b
G|------------------------18-----------------------------------18---------
D|------------------------------------------------------------------------
A|------------------------------------------------------------------------
E|------------------------------------------------------------------------

							http://www.guitartabcreator.com
Instruments
{"strings":[[[".",".",".",".",".","_",".","_",".",".",".","_",".",".",".",".",".","_",".",".",".",".",".","_",".",".",".",".",".","_","_",".",".",".",".",".",".",".",".",".",".",".",".","."],[19,"b",21,"r",17,"_",".","_",17,17,17,"_",".",".",".",".",".","_",".",".",".",".",".","_",".",".",".",".",".","_","_",".",17,17,".",17,17,".",17,17,".",17,17,"."],[".",".",".",".",".","_",18,"_",".",".",".","_",18,"b",20,"r",18,"_",".",".",".",".",".","_",".",".",".",".",".","_","_",16,".",".",14,".",".",16,".",".",14,".",".",13],[".",".",".",".",".","_",".","_",".",".",".","_",".",".",".",".",".","_",18,"b",20,"r",14,"_",".",".",".",".",14,"_","_",".",".",".",".",".",".",".",".",".",".",".",".","."],[".",".",".",".",".","_",".","_",".",".",".","_",".",".",".",".",".","_",".",".",".",".",".","_",14,14,"/",16,".","_","_",".",".",".",".",".",".",".",".",".",".",".",".","."],[".",".",".",".",".","_",".","_",".",".",".","_",".",".",".",".",".","_",".",".",".",".",".","_",".",".",".",".",".","_","_",".",".",".",".",".",".",".",".",".",".",".",".","."]],[[".",".",".","_",".",".",".",".",".",".",".",".",12,14,"_",14,"b",16,"r",12,"_",14,15,16,17,15,16,12,12,12,".",12,".",10,10,"."],[17,17,13,"_",14,"b",16,"r",12,".",".",12,".",".","_",".",".",".",".",".","_",".",".",".",".",".",".",".",".",".",12,".",10,".",".",12],[".",".",".","_",".",".",".",".",".",14,13,".",".",".","_",".",".",".",".",".","_",".",".",".",".",".",".",".",".",".",".",".",".",".",".","."],[".",".",".","_",".",".",".",".",".",".",".",".",".",".","_",".",".",".",".",".","_",".",".",".",".",".",".",".",".",".",".",".",".",".",".","."],[".",".",".","_",".",".",".",".",".",".",".",".",".",".","_",".",".",".",".",".","_",".",".",".",".",".",".",".",".",".",".",".",".",".",".","."],[".",".",".","_",".",".",".",".",".",".",".",".",".",".","_",".",".",".",".",".","_",".",".",".",".",".",".",".",".",".",".",".",".",".",".","."]],[[],[],[],[],[],[]],[[".",".",".",".",".",".",".",".",".","_",".",".",".",".",".",".",".",".",".",".",".",".",".",".",".","."],[9,10,12,10,9,"b",10,"r",9,"_",".",".",".",".",".",".",".",17,".",17,".",17,".",".",".","."],[".",".",".",".",".",".",".",".",".","_",9,".",".",".",".",9,18,".",18,".",18,".",19,"b",21,"r"],[".",".",".",".",".",".",".",".",".","_",".",9,9,"h",11,".",".",".",".",".",".",".",".",".",".","."],[".",".",".",".",".",".",".",".",".","_",".",".",".",".",".",".",".",".",".",".",".",".",".",".",".","."],[".",".",".",".",".",".",".",".",".","_",".",".",".",".",".",".",".",".",".",".",".",".",".",".",".","."]],[[".",17,".",".",".",".",".",".",".",".",21,17,19,".",".",".",".",".","_",".",".",".",".","."],[19,".",19,"b",21,"r",19,17,".",17,".",".",".",19,"b",21,"r",19,"_",17,".",17,19,"b"],[".",".",".",".",".",".",".",".",18,".",".",".",".",".",".",".",".",".","_",".",18,".",".","."],[".",".",".",".",".",".",".",".",".",".",".",".",".",".",".",".",".",".","_",".",".",".",".","."],[".",".",".",".",".",".",".",".",".",".",".",".",".",".",".",".",".",".","_",".",".",".",".","."],[".",".",".",".",".",".",".",".",".",".",".",".",".",".",".",".",".",".","_",".",".",".",".","."]]],"numberofstrings":6,"notes":["E","B","G","D","A","E","B"],"capo":0,"stringnotes":["E4","B3","G3","D3","A2","E2"],"comments":["Stave 1:","Stave 2:","Stave 3:","Stave 4:","Stave 5:"],"timing":[["W",null,"W",null,"W",null,"W",null,"W","W","W",null,"W",null,"W",null,"W",null,"W",null,"W",null,"W",null,"W","W",null,"W","W",null,null,"W","W","W","W","W","W","W","W","W","W","W","W","W"],["W","W","W",null,"W",null,"W",null,"W","W","W","W","W","W",null,"W",null,"W",null,"W",null,"W","W","W","W","W","W","W","W","W","W","W","W","W","W","W"],["W","W","W","W","W","W",null,"W",null,"W","W","W",null,"W","W","W"],["W","W","W","W","W",null,"W",null,"W",null,"W","W","W",null,"W","W","W","W","W","W","W","W","W",null,"W"],["W","W","W",null,"W",null,"W","W","W","W","W","W","W","W",null,"W",null,"W",null,"W","W","W","W"]],"timingvisible":false,"tabcounter":24,"stave":4,"totalstaves":5,"instrument":"6guitar","selectedtuning":"6_standard","version":"13"}

Member for

5 years
Submitted by chunk337 on Mon, 2020-08-10 15:37