specialist persona 4

01234567891011121314151617181920212223
E
B
G
D
A
E
B
0 1 2 3 4 5 6 7 8 9 10 11 12 13 14 15 16 17 18 19 20 21 22 23
(/) Slide Up  (\) Slide Down  (h) Hammer On  (p) Pull Off  (b) Bend (r) Release (v) Vibrato

Stave 1:

E|--------------------------------------------------------------------|--
B|-----------------------------------------------------7--------------|--
G|--------6--8--8-----8--6--6--------------------6--8--------6-----8--|--
D|--6--9-----------------------9--8--6-----6--9-----------9-----9-----|--
A|--------------------------------------------------------------------|--
E|--------------------------------------------------------------------|--

Stave 2:

E|-----------------------------------------------------------------------
B|-----------------------------------------------------------------------
G|--------6--8--8-----8--6--6-----------------------6--------------------
D|--6--9-----------------------9--8--6-----6--8--9-----9--8--4--8--8--6--
A|-----------------------------------------------------------------------
E|-----------------------------------------------------------------------

							http://www.guitartabcreator.com
Chords

Instruments
{"strings":[[[".",".",".",".",".","_",".",".",".",".",".",".","_",".",".",".",".",".",".",".",".",".","|"],[".",".",".",".",".","_",".",".",".",".",".",".","_",".",".",".",".",7,".",".",".",".","|"],[".",".",6,8,8,"_",8,6,6,".",".",".","_",".",".",6,8,".",".",6,".",8,"|"],[6,9,".",".",".","_",".",".",".",9,8,6,"_",6,9,".",".",".",9,".",9,".","|"],[".",".",".",".",".","_",".",".",".",".",".",".","_",".",".",".",".",".",".",".",".",".","|"],[".",".",".",".",".","_",".",".",".",".",".",".","_",".",".",".",".",".",".",".",".",".","|"]],[[".",".",".",".",".","_",".",".",".",".",".",".","_",".",".",".",".",".",".",".",".",".","."],[".",".",".",".",".","_",".",".",".",".",".",".","_",".",".",".",".",".",".",".",".",".","."],[".",".",6,8,8,"_",8,6,6,".",".",".","_",".",".",".",6,".",".",".",".",".","."],[6,9,".",".",".","_",".",".",".",9,8,6,"_",6,8,9,".",9,8,4,8,8,6],[".",".",".",".",".","_",".",".",".",".",".",".","_",".",".",".",".",".",".",".",".",".","."],[".",".",".",".",".","_",".",".",".",".",".",".","_",".",".",".",".",".",".",".",".",".","."]]],"numberofstrings":6,"notes":["E","B","G","D","A","E","B"],"capo":0,"stringnotes":["E4","B3","G3","D3","A2","E2"],"comments":["Stave 1:","Stave 2:"],"timing":[["W","W","W","W","W","W","W","W","W","W","W","W","W","W","W","W","W","W","W","W","W","W"],["W","W","W","W","W","W","W","W","W","W","W","W","W","W","W","W","W","W","W","W","W","W","W"]],"timingvisible":false,"tabcounter":23,"stave":1,"totalstaves":2,"instrument":"6guitar","selectedtuning":"6_standard","version":"13"}

Member for

6 months
Submitted by ChukBenis on Fri, 2021-11-12 11:28