fandeyian okultika hymnology

01234567891011121314151617181920212223
E
B
G
D
A
E
B
0 1 2 3 4 5 6 7 8 9 10 11 12 13 14 15 16 17 18 19 20 21 22 23
(/) Slide Up  (\) Slide Down  (h) Hammer On  (p) Pull Off  (b) Bend (r) Release (v) Vibrato

Stave 1:

E|-----------------------------------------------------------------------------------|---------------------------------------------------------------------------|--
B|-----------------------------------------------------------------------------------|---------------------------------------------------------------------------|--
G|----------------------------------------------------------9--8p9-------------------|----------------------------------------------------------9--8--9--11--12--|--
D|----------------------9----------------------9--7--9--10----------9--10------------|----------------------9----------------------9--7--9--10-------------------|--
A|--7--7--9--9--10--10-----------9--9--10--10------------------------------10--------|--7--7--9--9--10--10-----------9--9--10--10--------------------------------|--
E|-------------------------8--8------------------------------------------------------|-------------------------8--8----------------------------------------------|--

Stave 2:

E|--12-------------------------------------------|--12------------------------------------------
B|------12--13--10--12--10-----------------------|------12--13--10--12--10----------------------
G|--------------------------12--11--12--9--8--9--|--------------------------12--11--12v--9--8v--
D|-----------------------------------------------|----------------------------------------------
A|-----------------------------------------------|----------------------------------------------
E|-----------------------------------------------|----------------------------------------------

Stave 3:

E|-----------------------------------------------------------------------------------------------------|--
B|-----------------------------------------------------------------------------------------------------|--
G|-----------------------------------------------------------------------------------------------------|--
D|------------------------------------------------------7--7--9--10--7--7--9--10-----12--10--9p10------|--
A|--7--7--9--10--7--7--9--10--------9--10--------9--10---------------------------------------------10--|--
E|----------------------------8--8---------8--8--------------------------------------------------------|--

Stave 4:

E|--------------------------------------------------------------------------------------------------------------------------------------------------
B|------7--8--7-----10--12--13--10--12--13--12--10--12/13--12-----12p13--10---------10--------------------------------------------------------------
G|--9v--------------------------------------------------------------------------12------12--11--9--11--9--7-----------------------------------------
D|-----------------------------------------------------------------------------------------------------------9--10--9p10-----7------7---------------
A|------------------------------------------------------------------------------------------------------------------------------10-----10--9--5--7--
E|--------------------------------------------------------------------------------------------------------------------------------------------------

							http://www.guitartabcreator.com
Chords

Instruments
{"strings":[[[".",".",".",".",".",".",".",".",".",".",".",".",".",".",".",".",".",".",".",".",".",".",".",".","_","_","|",".",".",".",".",".",".",".",".",".",".",".",".",".",".",".",".",".",".",".",".",".",".","|"],[".",".",".",".",".",".",".",".",".",".",".",".",".",".",".",".",".",".",".",".",".",".",".",".","_","_","|",".",".",".",".",".",".",".",".",".",".",".",".",".",".",".",".",".",".",".",".",".",".","|"],[".",".",".",".",".",".",".",".",".",".",".",".",".",".",".",".",".",9,8,"p",9,".",".",".","_","_","|",".",".",".",".",".",".",".",".",".",".",".",".",".",".",".",".",".",9,8,9,11,12,"|"],[".",".",".",".",".",".",9,".",".",".",".",".",".",9,7,9,10,".",".",".",".",9,10,".","_","_","|",".",".",".",".",".",".",9,".",".",".",".",".",".",9,7,9,10,".",".",".",".",".","|"],[7,7,9,9,10,10,".",".",".",9,9,10,10,".",".",".",".",".",".",".",".",".",".",10,"_","_","|",7,7,9,9,10,10,".",".",".",9,9,10,10,".",".",".",".",".",".",".",".",".","|"],[".",".",".",".",".",".",".",8,8,".",".",".",".",".",".",".",".",".",".",".",".",".",".",".","_","_","|",".",".",".",".",".",".",".",8,8,".",".",".",".",".",".",".",".",".",".",".",".",".","|"]],[[12,".",".",".",".",".",".",".",".",".",".",".","|",12,".",".",".",".",".",".",".",".",".",".",".","."],[".",12,13,10,12,10,".",".",".",".",".",".","|",".",12,13,10,12,10,".",".",".",".",".",".","."],[".",".",".",".",".",".",12,11,12,9,8,9,"|",".",".",".",".",".",".",12,11,12,"v",9,8,"v"],[".",".",".",".",".",".",".",".",".",".",".",".","|",".",".",".",".",".",".",".",".",".",".",".",".","."],[".",".",".",".",".",".",".",".",".",".",".",".","|",".",".",".",".",".",".",".",".",".",".",".",".","."],[".",".",".",".",".",".",".",".",".",".",".",".","|",".",".",".",".",".",".",".",".",".",".",".",".","."]],[[".",".",".",".",".",".",".",".",".",".",".",".",".",".",".",".",".",".",".",".",".",".",".",".","_",".",".",".",".",".",".","|"],[".",".",".",".",".",".",".",".",".",".",".",".",".",".",".",".",".",".",".",".",".",".",".",".","_",".",".",".",".",".",".","|"],[".",".",".",".",".",".",".",".",".",".",".",".",".",".",".",".",".",".",".",".",".",".",".",".","_",".",".",".",".",".",".","|"],[".",".",".",".",".",".",".",".",".",".",".",".",".",".",".",".",7,7,9,10,7,7,9,10,"_",12,10,9,"p",10,".","|"],[7,7,9,10,7,7,9,10,".",".",9,10,".",".",9,10,".",".",".",".",".",".",".",".","_",".",".",".",".",".",10,"|"],[".",".",".",".",".",".",".",".",8,8,".",".",8,8,".",".",".",".",".",".",".",".",".",".","_",".",".",".",".",".",".","|"]],[[".",".",".",".",".","_",".",".",".",".",".",".",".",".",".",".",".",".","_",".",".",".",".","_",".",".",".",".",".",".",".",".",".",".",".",".",".","_",".",".",".",".",".",".","."],[".",".",7,8,7,"_",10,12,13,10,12,13,12,10,12,"/",13,12,"_",12,"p",13,10,"_",".",10,".",".",".",".",".",".",".",".",".",".",".","_",".",".",".",".",".",".","."],[9,"v",".",".",".","_",".",".",".",".",".",".",".",".",".",".",".",".","_",".",".",".",".","_",12,".",12,11,9,11,9,7,".",".",".",".",".","_",".",".",".",".",".",".","."],[".",".",".",".",".","_",".",".",".",".",".",".",".",".",".",".",".",".","_",".",".",".",".","_",".",".",".",".",".",".",".",".",9,10,9,"p",10,"_",7,".",7,".",".",".","."],[".",".",".",".",".","_",".",".",".",".",".",".",".",".",".",".",".",".","_",".",".",".",".","_",".",".",".",".",".",".",".",".",".",".",".",".",".","_",".",10,".",10,9,5,7],[".",".",".",".",".","_",".",".",".",".",".",".",".",".",".",".",".",".","_",".",".",".",".","_",".",".",".",".",".",".",".",".",".",".",".",".",".","_",".",".",".",".",".",".","."]]],"numberofstrings":6,"notes":["E","B","G","D","A","E","B"],"capo":0,"stringnotes":["E4","B3","G3","D3","A2","E2"],"comments":["Stave 1:","Stave 2:","Stave 3:","Stave 4:"],"timing":[["W","W","W","W","W","W","W","W","W","W","W","W","W","W","W","W","W","W","W","W","W","W","W","W",null,null,null,"W","W","W","W","W","W","W","W","W","W","W","W","W","W","W","W","W","W","W","W","W","W"],["W","W","W","W","W","W","W","W","W","W","W","W",null,"W","W","W","W","W","W","W","W","W",null,"W","W"],["W","W","W","W","W","W","W","W","W","W","W","W","W","W","W","W","W","W","W","W","W","W","W","W","W","W","W","W",null,"W","W"],["W",null,"W","W","W",null,"W","W","W","W","W","W","W","W","W",null,"W","W",null,"W",null,"W","W",null,"W","W","W","W","W","W","W","W","W","W","W",null,"W",null,"W","W","W","W","W","W","W"]],"timingvisible":false,"tabcounter":45,"stave":3,"totalstaves":4,"instrument":"6guitar","selectedtuning":"6_standard","version":"13"}

Member for

1 month 4 weeks
Submitted by Chuck on Thu, 2020-11-26 05:56