Sound will begin in 5 seconds

The "Slice" Solo

01234567891011121314151617181920212223
E
B
G
D
A
E
B
0 1 2 3 4 5 6 7 8 9 10 11 12 13 14 15 16 17 18 19 20 21 22 23
Song Science #1: How Pros Use 6 Chords to Write Hit Songs
(/) Slide Up  (\) Slide Down  (h) Hammer On  (p) Pull Off  (b) Bend (r) Release (v) Vibrato

Stave 1:

E|-------------------------------------------12-14-14b14r12-14-12-14-12-----------
B|----------------------------------12-13-15--------------------------------------
G|-------------------------11-12-14-----------------------------------------------
D|-------------------12-14--------------------------------------------------------
A|----------12-14-15--------------------------------------------------------------
E|-12-14-15-----------------------------------------------------------------------

Stave 2:

E|-12h14p12-12h15p12-
B|-------------------
G|-------------------
D|-------------------
A|-------------------
E|-------------------

Stave 3:

E|-14b12-14-12-15p14p12----------------------------------------------------------------
B|----------------------15p13p12-------------------------------------------------------
G|-------------------------------14p12p11-12b12r11-12-11-12-11-11h12p11----------------
D|----------------------------------------------------------------------14-12----------
A|----------------------------------------------------------------------------14-12----
E|----------------------------------------------------------------------------------14-

Stave 4:

E|-------------------------
B|-------------------------
G|-------------------------
D|-------------------12-14-
A|----------12-14-15-------
E|-12-14-15----------------

http://www.guitartabcreator.com
Guitar Tab Creator is intended to store guitar tab created through the tool. It currently does not support in-line text editing. Any text you place in here will be lost. If you need to comment on your tab, please use the "Tab Notes" section located below.