Sound will begin in 5 seconds

Tune Up B

01234567891011121314151617181920212223
E
B
G
D
A
E
B
0 1 2 3 4 5 6 7 8 9 10 11 12 13 14 15 16 17 18 19 20 21 22 23
Song Science #1: How Pros Use 6 Chords to Write Hit Songs
(/) Slide Up  (\) Slide Down  (h) Hammer On  (p) Pull Off  (b) Bend (r) Release (v) Vibrato

Stave 1:

E|--------------------------------------2-----------2-----------------------------------------------------------------------
B|--------------------------------------------------------------------------------2-----------------------2-----------------
G|-----------------------------------2-----2-----2-----2-----------------------2--------2--------------2--------2-----------
D|--------------------------------0-----------------------0-----------------2--------------2--------2--------------2--------
A|--------------------------------------------2--------------------------0--------------------------------------------------
E|--0--------------0-----------------------------------------------------------------------------3--------------------------

Stave 2:

E|-----------------2-----------2-----------2-----------2-----------2-----------2-----------2-----------------------------------------------------
B|--------------------------------------------------------------------------------------------------------2-----------------------2--------------
G|--------------2-----2-----2-----2-----2-----2-----2-----2-----2-----2-----2-----2-----2-----2--------2--------2--------------2--------2--------
D|-----------0-----------------------0-----------------------0-----------------------0--------------2--------------2--------2--------------2-----
A|-----------------------2-----------------------2-----------------------2-----------------------0-----------------------------------------------
E|-----------------------------------------------------------------------------------------------------------------------3-----------------------

Stave 3:

E|--------------------------------------------------
B|--------------------------------------------------
G|--------------------------------------------------
D|--------------------------------------------------
A|--------------------------------------------------
E|--x-----x-----x-----x-----------------------------

Stave 4:

E|--------------------------------------------------
B|--------------------------------------------------
G|--------------------------------------------------
D|--------------------------------------------------
A|--------------------------------------------------
E|--0--0--0--0--0--0--0--0--0--0--0--0--0--0--0--0--

Stave 5:

E|------------------------------------------------
B|------------------------------------------------
G|------------------------------------------------
D|--r---------------------------------------------
A|------0--0--0--0--0--0--0--0--0--0--0--0--0--0--
E|------------------------------------------------

Stave 6:

E|-----------------------------------------------
B|-----------------------------------------------
G|-----------------------------------------------
D|-----------------------------------------------
A|-----------------------------------------------
E|--0--0--0--0--0--0--0--0--0--0--0--0--0--0--0--

Stave 7:

E|--------------------------
B|--------------------------
G|--------------------------
D|--------0-----0-----0-----
A|-----0-----0-----0-----0--
E|--0-----------------------

Stave 8:

E|-----------------
B|-----------------
G|-----------------
D|-----------------
A|-----------------
E|--0--------------

Stave 9:

E|-----------------0--------------
B|--------------0-----------------
G|-----------0--------------------
D|--------0-----------------------
A|-----0--------------------------
E|--0-----------------------------

Stave 10:

E|-----------------
B|-----------------
G|-----------------
D|-----------------
A|-----------------
E|--0--------------

Stave 11:

E|--8------------------8---------------------------------------------------------------------------------------
B|------------------8-----12---------------8--12--10--------10--12--13-----------------------10--12--12--------
G|---------------9----------------------9----------------------------------10--10--------12--------------------
D|-----------10---------------------10-------------------------------------------------------------------------
A|-------------------------------------------------------------------------------------------------------------
E|-------------------------------------------------------------------------------------------------------------

http://www.guitartabcreator.com
Guitar Tab Creator is intended to store guitar tab created through the tool. It currently does not support in-line text editing. Any text you place in here will be lost. If you need to comment on your tab, please use the "Tab Notes" section located below.