SWIMMING LESSON - CHRIS GERVAIS

01234567891011121314151617181920212223
E
B
G
D
A
E
B
0 1 2 3 4 5 6 7 8 9 10 11 12 13 14 15 16 17 18 19 20 21 22 23
(/) Slide Up  (\) Slide Down  (h) Hammer On  (p) Pull Off  (b) Bend (r) Release (v) Vibrato

Verse

E|-----------------------------------------------7-----5-----4------------------------------------------------------------------------
B|--5--------5--4-----5--4--5--4-----------------------------------7-----5--------5--4-----5--4--5--4---------------------------------
G|-----6--4-----------------------6-----------4-----4-----4-----4-----------6--4-----------------------6-----------6b8--6--4--4b6--4--
D|------------------------------------------------------------------------------------------------------------------------------------
A|------------------------------------------------------------------------------------------------------------------------------------
E|------------------------------------------------------------------------------------------------------------------------------------



E|-----------------------------------------------7-----5-----4-------------------------------------------------------------------------------
B|--5--------5--4-----5--4--5--4-----------------------------------7-----5--------5--4-----5--4--5--4----------------------------------------
G|-----6--4-----------------------6-----------4-----4-----4-----4-----------6--4-----------------------6-----6b8--6--4--4b6--4--6b8--6b8--6--
D|-------------------------------------------------------------------------------------------------------------------------------------------
A|-------------------------------------------------------------------------------------------------------------------------------------------
E|-------------------------------------------------------------------------------------------------------------------------------------------

Chorus

E|-----------------------9--7--------------------------------------------------9--7-----------------------------------------
B|--7-----7-----7--9-----------7--7--9--8--7--------------7-----7-----7--9-----------7--7--9--8--7--------------------------
G|-----------9--------------------------------9--------------------9--------------------------------9-----------------------
D|--------------------------------------------------------------------------------------------------------------------------
A|--------------------------------------------------------------------------------------------------------------------------
E|--------------------------------------------------------------------------------------------------------------------------

							http://www.guitartabcreator.com
Chords

Tab Notes
Studio = Capo 3rd fret Live = Capo 4th fret
Instruments
{"strings":[[[".",".",".",".",".","_",".",".",".",".",".","_","_","_",".",7,".",5,".",4,".",".","_",".",".",".",".",".","_",".",".",".",".",".","_","_","_",".",".",".",".",".",".",".",".","."],[5,".",".",5,4,"_",5,4,5,4,".","_","_","_",".",".",".",".",".",".",".",7,"_",5,".",".",5,4,"_",5,4,5,4,".","_","_","_",".",".",".",".",".",".",".",".","."],[".",6,4,".",".","_",".",".",".",".",6,"_","_","_",4,".",4,".",4,".",4,".","_",".",6,4,".",".","_",".",".",".",".",6,"_","_","_",6,"b",8,6,4,4,"b",6,4],[".",".",".",".",".","_",".",".",".",".",".","_","_","_",".",".",".",".",".",".",".",".","_",".",".",".",".",".","_",".",".",".",".",".","_","_","_",".",".",".",".",".",".",".",".","."],[".",".",".",".",".","_",".",".",".",".",".","_","_","_",".",".",".",".",".",".",".",".","_",".",".",".",".",".","_",".",".",".",".",".","_","_","_",".",".",".",".",".",".",".",".","."],[".",".",".",".",".","_",".",".",".",".",".","_","_","_",".",".",".",".",".",".",".",".","_",".",".",".",".",".","_",".",".",".",".",".","_","_","_",".",".",".",".",".",".",".",".","."]],[[".",".",".",".",".","_",".",".",".",".",".","_","_","_",".",7,".",5,".",4,".",".","_",".",".",".",".",".","_",".",".",".",".",".","_",".",".",".",".",".",".",".",".",".",".",".",".",".",".",".","."],[5,".",".",5,4,"_",5,4,5,4,".","_","_","_",".",".",".",".",".",".",".",7,"_",5,".",".",5,4,"_",5,4,5,4,".","_",".",".",".",".",".",".",".",".",".",".",".",".",".",".",".","."],[".",6,4,".",".","_",".",".",".",".",6,"_","_","_",4,".",4,".",4,".",4,".","_",".",6,4,".",".","_",".",".",".",".",6,"_",6,"b",8,6,4,4,"b",6,4,6,"b",8,6,"b",8,6],[".",".",".",".",".","_",".",".",".",".",".","_","_","_",".",".",".",".",".",".",".",".","_",".",".",".",".",".","_",".",".",".",".",".","_",".",".",".",".",".",".",".",".",".",".",".",".",".",".",".","."],[".",".",".",".",".","_",".",".",".",".",".","_","_","_",".",".",".",".",".",".",".",".","_",".",".",".",".",".","_",".",".",".",".",".","_",".",".",".",".",".",".",".",".",".",".",".",".",".",".",".","."],[".",".",".",".",".","_",".",".",".",".",".","_","_","_",".",".",".",".",".",".",".",".","_",".",".",".",".",".","_",".",".",".",".",".","_",".",".",".",".",".",".",".",".",".",".",".",".",".",".",".","."]],[[".","_",".",".",".",".","_",9,7,".",".",".",".",".",".","_","_","_",".","_",".",".",".",".","_",9,7,".",".",".",".",".",".","_","_","_","_","_","_","_"],[7,"_",7,".",7,9,"_",".",".",7,7,9,8,7,".","_","_","_",7,"_",7,".",7,9,"_",".",".",7,7,9,8,7,".","_","_","_","_","_","_","_"],[".","_",".",9,".",".","_",".",".",".",".",".",".",".",9,"_","_","_",".","_",".",9,".",".","_",".",".",".",".",".",".",".",9,"_","_","_","_","_","_","_"],[".","_",".",".",".",".","_",".",".",".",".",".",".",".",".","_","_","_",".","_",".",".",".",".","_",".",".",".",".",".",".",".",".","_","_","_","_","_","_","_"],[".","_",".",".",".",".","_",".",".",".",".",".",".",".",".","_","_","_",".","_",".",".",".",".","_",".",".",".",".",".",".",".",".","_","_","_","_","_","_","_"],[".","_",".",".",".",".","_",".",".",".",".",".",".",".",".","_","_","_",".","_",".",".",".",".","_",".",".",".",".",".",".",".",".","_","_","_","_","_","_","_"]]],"numberofstrings":6,"notes":["E","B","G","D","A","E","B"],"capo":0,"stringnotes":["E4","B3","G3","D3","A2","E2"],"comments":["Verse","","Chorus"],"timing":[["W","W","W","W","W","W","W","W","W","W","W","W","W","W","W","W","W","W","W","W","W","W","W","W","W","W","W","W","W","W","W","W","W","W","W","W","W","W",null,"W","W","W","W",null,"W","W"],["W","W","W","W","W","W","W","W","W","W","W","W","W","W","W","W","W","W","W","W","W","W","W","W","W","W","W","W","W","W","W","W","W","W","W","W",null,"W","W","W","W",null,"W","W","W",null,"W","W",null,"W","W"],["W","W","W","W","W","W","W","W","W","W","W","W","W","W","W","W","W","W","W","W","W","W","W","W","W","W","W","W","W","W","W","W","W","W","W","W","W","W","W","W"]],"timingvisible":false,"tabcounter":46,"stave":0,"totalstaves":3,"instrument":"6guitar","selectedtuning":"6_standard","version":"13"}

Member for

1 month 2 weeks
Submitted by chrisgervais69 on Wed, 2021-08-04 23:40