Sound will begin in 5 seconds

Crossing field chris 526

01234567891011121314151617181920212223
E
B
G
D
A
E
B
0 1 2 3 4 5 6 7 8 9 10 11 12 13 14 15 16 17 18 19 20 21 22 23
Song Science #1: How Pros Use 6 Chords to Write Hit Songs
(/) Slide Up  (\) Slide Down  (h) Hammer On  (p) Pull Off  (b) Bend (r) Release (v) Vibrato

Stave 1:

E|----------------8-----------10---10---8---------------------------
B|---6---8---10-------6---5-----------------10---11---10---8---10---
G|------------------------------------------------------------------
D|------------------------------------------------------------------
A|------------------------------------------------------------------
E|------------------------------------------------------------------

Stave 2:

E|---13---12---8---8---10---10---10---10---10---
B|----------------------------------------------
G|----------------------------------------------
D|----------------------------------------------
A|----------------------------------------------
E|----------------------------------------------

Stave 3:

E|----------------------------------------------------------------
B|-----------------8-----------------------------8----------------
G|---10---9---10-------7---7---9---10---9---10-------7---7---10---
D|----------------------------------------------------------------
A|----------------------------------------------------------------
E|----------------------------------------------------------------

Stave 4:

E|---8---------------------
B|-------------------------
G|-------10---9---7--------
D|--------------------10---
A|-------------------------
E|-------------------------

Stave 5:

E|---------------------------------------------------8---8-------------------------------------
B|-----------------8-----------------------------8--------------------8---8---6------------8---
G|---10---9---10-------7---7---9---10---9---10---------------10---9---------------9---10-------
D|---------------------------------------------------------------------------------------------
A|---------------------------------------------------------------------------------------------
E|---------------------------------------------------------------------------------------------

Stave 6:

E|--------------------------------------------
B|---10--------8------------------------------
G|--------10-------9--------7---10-------10---
D|---------------------10------------9--------
A|--------------------------------------------
E|--------------------------------------------

Stave 7:

E|---------------------------------------------------------------------------
B|---8--------8---10---11---8--------8--------8---13---11---8---10---6---8---
G|-------10---------------------10-------10----------------------------------
D|---------------------------------------------------------------------------
A|---------------------------------------------------------------------------
E|---------------------------------------------------------------------------

Stave 8:

E|----------------8-----------10---10---8--------6-----------------------------------------------------------------------------10--------
B|---6---8---10-------6---------------------10-------10---8---11---10---8---10---8---10---8---10---8---10---8---10---10---10--------10---
G|------------------------9--------------------------------------------------------------------------------------------------------------
D|---------------------------------------------------------------------------------------------------------------------------------------
A|---------------------------------------------------------------------------------------------------------------------------------------
E|---------------------------------------------------------------------------------------------------------------------------------------

Stave 9:

E|----------------8-------10---10---8--------6------------8--------------------------------------------
B|---6---8---10-------------------------10-------10---8-------10---8---10---8---10---8---10---8---10---
G|--------------------9--------------------------------------------------------------------------------
D|-----------------------------------------------------------------------------------------------------
A|-----------------------------------------------------------------------------------------------------
E|-----------------------------------------------------------------------------------------------------

Stave 10:

E|------------8--------8-------
B|---8---11-------10-------8---
G|-----------------------------
D|-----------------------------
A|-----------------------------
E|-----------------------------

Stave 11:

E|------------8----------------------------------
B|---8------------10---11---10---8---6---8-------
G|-------10----------------------------------7---
D|-----------------------------------------------
A|-----------------------------------------------
E|-----------------------------------------------

Stave 12:

E|------------------------------------------------------------------------------------
B|---10---10---10---10---10---8-------------8-----------------------------------------
G|--------------------------------10------------10---9--------7---7---7---7---7---7---
D|-------------------------------------10----------------10---------------------------
A|------------------------------------------------------------------------------------
E|------------------------------------------------------------------------------------

Stave 13:

E|---------------------------------------------------------------------------------
B|---10-------------------------------------10-------------------------------------
G|--------12---10---12---9-----------------------12---10---12---9-------------10---
D|---------------------------10---14---12---------------------------10---14--------
A|---------------------------------------------------------------------------------
E|---------------------------------------------------------------------------------

http://www.guitartabcreator.com
Guitar Tab Creator is intended to store guitar tab created through the tool. It currently does not support in-line text editing. Any text you place in here will be lost. If you need to comment on your tab, please use the "Tab Notes" section located below.