18

Chords

01234567891011121314151617181920212223
E
B
G
D
A
E
B
0 1 2 3 4 5 6 7 8 9 10 11 12 13 14 15 16 17 18 19 20 21 22 23
(/) Slide Up  (\) Slide Down  (h) Hammer On  (p) Pull Off  (b) Bend (r) Release (v) Vibrato

Stave 1:

E|------------------------------------------------------------------
B|------------------------------------------------------------------
G|------------------------------------------------------------------
D|--------------5v-----------------------------------------5--------
A|--------5--7------7--5--7--7--7--------------5--5--5--7-----5--7--
E|--0--0---------------------------3--3--3--5-----------------------

Stave 2:

E|------------------------------------------------
B|------------------------------------------------
G|------------------------------------------------
D|--------------5v--------------------------------
A|--------5--7------7--5--7--7--7--------------5--
E|--0--0---------------------------3--3--3--5-----

Stave 3:

E|------------------------------------
B|------------------------------------
G|------------------------------------
D|--7/9--9--9--9--9--9--9\7--7--7--7--
A|--5-7--7--7--7--7--7--7-5--5--5--5--
E|------------------------------------

Stave 4:

E|----------------------------------------
B|----------------------------------------
G|----------------------------------------
D|--x--x-----x--x--------x--x--7/9--9--9--
A|--x--x--5--x--x--7--2--x--x--5-7--7--7--
E|--x--x--3--x--x--5--0--x--x-------------

							http://www.guitartabcreator.com
Tab Notes
Rough tab... not necessarily accounting for swing and bends/feels... some riffs double up before a tail etc so here are just the basics!
Instruments
{"strings":[[[".",".",".",".",".",".",".",".",".",".",".",".",".",".",".",".",".",".",".",".",".","."],[".",".",".",".",".",".",".",".",".",".",".",".",".",".",".",".",".",".",".",".",".","."],[".",".",".",".",".",".",".",".",".",".",".",".",".",".",".",".",".",".",".",".",".","."],[".",".",".",".",5,"v",".",".",".",".",".",".",".",".",".",".",".",".",".",5,".","."],[".",".",5,7,".",".",7,5,7,7,7,".",".",".",".",5,5,5,7,".",5,7],[0,0,".",".",".",".",".",".",".",".",".",3,3,3,5,".",".",".",".",".",".","."]],[[".",".",".",".",".",".",".",".",".",".",".",".",".",".",".","."],[".",".",".",".",".",".",".",".",".",".",".",".",".",".",".","."],[".",".",".",".",".",".",".",".",".",".",".",".",".",".",".","."],[".",".",".",".",5,"v",".",".",".",".",".",".",".",".",".","."],[".",".",5,7,".",".",7,5,7,7,7,".",".",".",".",5],[0,0,".",".",".",".",".",".",".",".",".",3,3,3,5,"."]],[[".",".",".",".",".",".",".",".",".",".",".",".",".","."],[".",".",".",".",".",".",".",".",".",".",".",".",".","."],[".",".",".",".",".",".",".",".",".",".",".",".",".","."],[7,"/",9,9,9,9,9,9,9,"\\",7,7,7,7],[5,".",7,7,7,7,7,7,7,".",5,5,5,5],[".",".",".",".",".",".",".",".",".",".",".",".",".","."]],[[".",".",".",".",".",".",".",".",".",".",".",".",".","."],[".",".",".",".",".",".",".",".",".",".",".",".",".","."],[".",".",".",".",".",".",".",".",".",".",".",".",".","."],["x0","x0",".","x3","x3",".",".","x0","x0",7,"/",9,9,9],["x0","x0",5,"x3","x7",7,2,"x0","x0",5,".",7,7,7],["x0","x3",3,"x3","x5",5,0,"x0","x0",".",".",".",".","."]]],"numberofstrings":6,"notes":["E","B","G","D","A","E","B"],"capo":0,"stringnotes":["E4","B3","G3","D3","A2","E2"],"comments":["Stave 1:","Stave 2:","Stave 3:","Stave 4:"],"timing":[["W","W","W","W","W",null,"W","W","W","W","W","W","W","W","W","W","W","W","W","W","W","W"],["W","W","W","W","W",null,"W","W","W","W","W","W","W","W","W","W"],["W","W","W","W","W","W","W","W","W",null,"W","W","W","W"],["W","W","W","W","W","W","W","W","W","W","W","W","W","W"]],"timingvisible":false,"tabcounter":13,"stave":3,"totalstaves":4,"instrument":"6guitar","selectedtuning":"6_standard","version":"13"}

Member for

4 weeks 2 days
Submitted by Chris Punch on Thu, 2020-05-21 10:12