Parasyte

01234567891011121314151617181920212223
E
B
G
D
A
E
B
0 1 2 3 4 5 6 7 8 9 10 11 12 13 14 15 16 17 18 19 20 21 22 23
(/) Slide Up  (\) Slide Down  (h) Hammer On  (p) Pull Off  (b) Bend (r) Release (v) Vibrato

Stave 1:

E|-----------2--0-------------|-----------0-----------------|-----------2--0-------------|----------------3--2-----
B|--3-----3--------------3\2--|--3-----------3--2--0-----2--|--3-----3--------------3\2--|--2-----3p2--2--------2--
G|-----4----------------------|-----------------------2-----|-----4----------------------|-------------------------
D|----------------------------|-----------------------------|----------------------------|-------------------------
A|----------------------------|-----------------------------|----------------------------|-------------------------
E|----------------------------|-----------------------------|----------------------------|-------------------------

Stave 2:

E|-----------5--0-------------|----------------5-----2--0--|--------------2--0-----------|----------------3--2-----
B|--3-----3--------------3\2--|--2--------2/3--------------|--3--------3--------------3--|--2-----3p2--2--------2--
G|-----4----------------------|----------------------------|-----------------------------|-------------------------
D|----------------------------|----------------------------|-----------------------------|-------------------------
A|----------------------------|----------------------------|-----------------------------|-------------------------
E|----------------------------|----------------------------|-----------------------------|-------------------------

Stave 3:

E|-----------2--0-------------|-----------0-----------------|-----------2--0-------------|----------------3--2-----
B|--3-----3--------------3\2--|--3-----------3--2--0-----2--|--3-----3--------------3\2--|--2-----3p2--2--------2--
G|-----4----------------------|-----------------------2-----|-----4----------------------|-------------------------
D|----------------------------|-----------------------------|----------------------------|-------------------------
A|----------------------------|-----------------------------|----------------------------|-------------------------
E|----------------------------|-----------------------------|----------------------------|-------------------------

Stave 4:

E|-----------5--0-------------|----------------5-----2--0--|--------------2--0-----------|----------------3--2-----
B|--3-----3--------------3\2--|--2--------2\3--------------|--3--------3--------------3--|--2-----3p2--2--------2--
G|-----4----------------------|----------------------------|-----------------------------|-------------------------
D|----------------------------|----------------------------|-----------------------------|-------------------------
A|----------------------------|----------------------------|-----------------------------|-------------------------
E|----------------------------|----------------------------|-----------------------------|-------------------------

Stave 5:

E|-----------------------------|-----------------------------|-----0-----0-----2-----3--|--2-----2-----0-----0-----
B|--3-----3-----3--------2-----|--0-----0-----3-----2--3-----|--------------------------|-----------------------3--
G|-----------------------------|-----------------------------|--------------------------|--------------------------
D|-----------------------------|-----------------------------|--------------------------|--------------------------
A|-----------------------------|-----------------------------|--------------------------|--------------------------
E|-----------------------------|-----------------------------|--------------------------|--------------------------

							http://www.guitartabcreator.com
Chords

Instruments
{"strings":[[[".",".",".",2,0,"_","_",".",".",".","|",".","_","_",0,".",".",".",".",".","|",".",".",".",2,0,"_","_",".",".",".","|",".","_",".",".",".",".",3,2,"."],[3,".",3,".",".","_","_",3,"\\",2,"|",3,"_","_",".",3,2,0,".",2,"|",3,".",3,".",".","_","_",3,"\\",2,"|",2,"_",3,"p",2,2,".",".",2],[".",4,".",".",".","_","_",".",".",".","|",".","_","_",".",".",".",".",2,".","|",".",4,".",".",".","_","_",".",".",".","|",".","_",".",".",".",".",".",".","."],[".",".",".",".",".","_","_",".",".",".","|",".","_","_",".",".",".",".",".",".","|",".",".",".",".",".","_","_",".",".",".","|",".","_",".",".",".",".",".",".","."],[".",".",".",".",".","_","_",".",".",".","|",".","_","_",".",".",".",".",".",".","|",".",".",".",".",".","_","_",".",".",".","|",".","_",".",".",".",".",".",".","."],[".",".",".",".",".","_","_",".",".",".","|",".","_","_",".",".",".",".",".",".","|",".",".",".",".",".","_","_",".",".",".","|",".","_",".",".",".",".",".",".","."]],[[".",".",".",5,0,"_","_",".",".",".","|",".","_","_",".",".",".",5,"_",2,0,"|",".","_","_",".",2,0,"_","_",".","|",".","_",".",".",".",".",3,2,"."],[3,".",3,".",".","_","_",3,"\\",2,"|",2,"_","_",2,"/",3,".","_",".",".","|",3,"_","_",3,".",".","_","_",3,"|",2,"_",3,"p",2,2,".",".",2],[".",4,".",".",".","_","_",".",".",".","|",".","_","_",".",".",".",".","_",".",".","|",".","_","_",".",".",".","_","_",".","|",".","_",".",".",".",".",".",".","."],[".",".",".",".",".","_","_",".",".",".","|",".","_","_",".",".",".",".","_",".",".","|",".","_","_",".",".",".","_","_",".","|",".","_",".",".",".",".",".",".","."],[".",".",".",".",".","_","_",".",".",".","|",".","_","_",".",".",".",".","_",".",".","|",".","_","_",".",".",".","_","_",".","|",".","_",".",".",".",".",".",".","."],[".",".",".",".",".","_","_",".",".",".","|",".","_","_",".",".",".",".","_",".",".","|",".","_","_",".",".",".","_","_",".","|",".","_",".",".",".",".",".",".","."]],[[".",".",".",2,0,"_","_",".",".",".","|",".","_","_",0,".",".",".",".",".","|",".",".",".",2,0,"_","_",".",".",".","|",".","_",".",".",".",".",3,2,"."],[3,".",3,".",".","_","_",3,"\\",2,"|",3,"_","_",".",3,2,0,".",2,"|",3,".",3,".",".","_","_",3,"\\",2,"|",2,"_",3,"p",2,2,".",".",2],[".",4,".",".",".","_","_",".",".",".","|",".","_","_",".",".",".",".",2,".","|",".",4,".",".",".","_","_",".",".",".","|",".","_",".",".",".",".",".",".","."],[".",".",".",".",".","_","_",".",".",".","|",".","_","_",".",".",".",".",".",".","|",".",".",".",".",".","_","_",".",".",".","|",".","_",".",".",".",".",".",".","."],[".",".",".",".",".","_","_",".",".",".","|",".","_","_",".",".",".",".",".",".","|",".",".",".",".",".","_","_",".",".",".","|",".","_",".",".",".",".",".",".","."],[".",".",".",".",".","_","_",".",".",".","|",".","_","_",".",".",".",".",".",".","|",".",".",".",".",".","_","_",".",".",".","|",".","_",".",".",".",".",".",".","."]],[[".",".",".",5,0,"_","_",".",".",".","|",".","_","_",".",".",".",5,"_",2,0,"|",".","_","_",".",2,0,"_","_",".","|",".","_",".",".",".",".",3,2,"."],[3,".",3,".",".","_","_",3,"\\",2,"|",2,"_","_",2,"\\",3,".","_",".",".","|",3,"_","_",3,".",".","_","_",3,"|",2,"_",3,"p",2,2,".",".",2],[".",4,".",".",".","_","_",".",".",".","|",".","_","_",".",".",".",".","_",".",".","|",".","_","_",".",".",".","_","_",".","|",".","_",".",".",".",".",".",".","."],[".",".",".",".",".","_","_",".",".",".","|",".","_","_",".",".",".",".","_",".",".","|",".","_","_",".",".",".","_","_",".","|",".","_",".",".",".",".",".",".","."],[".",".",".",".",".","_","_",".",".",".","|",".","_","_",".",".",".",".","_",".",".","|",".","_","_",".",".",".","_","_",".","|",".","_",".",".",".",".",".",".","."],[".",".",".",".",".","_","_",".",".",".","|",".","_","_",".",".",".",".","_",".",".","|",".","_","_",".",".",".","_","_",".","|",".","_",".",".",".",".",".",".","."]],[[".","_",".","_",".","_","_",".","_","|",".","_",".","_",".","_",".",".","_","|","_",0,"_",0,"_",2,"_",3,"|",2,"_",2,"_",0,"_",0,"."],[3,"_",3,"_",3,"_","_",2,"_","|",0,"_",0,"_",3,"_",2,3,"_","|","_",".","_",".","_",".","_",".","|",".","_",".","_",".","_",".",3],[".","_",".","_",".","_","_",".","_","|",".","_",".","_",".","_",".",".","_","|","_",".","_",".","_",".","_",".","|",".","_",".","_",".","_",".","."],[".","_",".","_",".","_","_",".","_","|",".","_",".","_",".","_",".",".","_","|","_",".","_",".","_",".","_",".","|",".","_",".","_",".","_",".","."],[".","_",".","_",".","_","_",".","_","|",".","_",".","_",".","_",".",".","_","|","_",".","_",".","_",".","_",".","|",".","_",".","_",".","_",".","."],[".","_",".","_",".","_","_",".","_","|",".","_",".","_",".","_",".",".","_","|","_",".","_",".","_",".","_",".","|",".","_",".","_",".","_",".","."]]],"numberofstrings":6,"notes":["E","B","G","D","A","E","B"],"capo":0,"stringnotes":["E4","B3","G3","D3","A2","E2"],"comments":["Stave 1:","Stave 2:","Stave 3:","Stave 4:","Stave 5:"],"timing":[["W","W","W","W","W",null,null,"W",null,"W",null,"W",null,null,"W","W","W","W","W","W",null,"W","W","W","W","W",null,null,"W",null,"W",null,"W",null,"W","W","W","W","W","W","W"],["W","W","W","W","W","W",null,"W",null,"W",null,"W",null,null,"W","W","W","W","W","W","W",null,"W",null,null,"W","W","W",null,null,"W","W","W","W","W","W","W","W","W","W","W"],["W","W","W","W","W",null,null,"W",null,"W",null,"W",null,null,"W","W","W","W","W","W",null,"W","W","W","W","W",null,null,"W","W","W",null,"W",null,"W","W","W","W","W","W","W","W"],["W","W","W","W","W",null,null,"W",null,"W",null,"W",null,null,"W","W","W","W","W","W","W","W","W",null,null,"W","W","W",null,null,"W",null,"W",null,"W",null,"W","W","W","W","W"],["W",null,"W",null,"W","W",null,"W",null,null,"W","W","W","W","W","W","W","W","W",null,null,"W",null,"W",null,"W",null,"W",null,"W",null,"W",null,"W",null,"W","W"]],"timingvisible":false,"tabcounter":37,"stave":4,"totalstaves":5,"instrument":"6guitar","selectedtuning":"6_standard","version":"13"}

Member for

1 month 3 weeks
Submitted by Chourmo on Mon, 2020-11-30 10:13