Sound will begin in 5 seconds

SN Scoutbal

01234567891011121314151617181920212223
E
B
G
D
A
E
B
0 1 2 3 4 5 6 7 8 9 10 11 12 13 14 15 16 17 18 19 20 21 22 23
Song Science #1: How Pros Use 6 Chords to Write Hit Songs
(/) Slide Up  (\) Slide Down  (h) Hammer On  (p) Pull Off  (b) Bend (r) Release (v) Vibrato

Stave 1:

G|-----------------------------------------------------------------------------------------------------
D|--------5--5--7--7--5--7--5--------5--5--7--7--5--7--5--------5--5--7--7--9--9--------7--7--------7--
A|--5--5-----------------------5--5-----------------------5--5--------------------7--7--------7--7-----
E|-----------------------------------------------------------------------------------------------------

Stave 2:

G|--------------------------------------------------------------
D|--------5--5--7--7--4--4--5--5--7--7--------------------------
A|--5--5--------------------------------5--5--------------------
E|--------------------------------------------5--5--7--7--9--9--

Stave 3:

G|--------------------------------------------------------
D|--------6--6--8--8--6--8--6--------6--6--8--8--6--8--6--
A|--6--6-----------------------6--6-----------------------
E|--------------------------------------------------------

Stave 4:

G|----------------------------------------------------------------
D|--------6--6--8--8--5--5--6--6--8--8----------------------------
A|--6--6--------------------------------6--6----------------------
E|--------------------------------------------6--6--8--8--10--10--

Stave 5:

G|--------------------------------------------------------
D|--------7--7--9--9--7--9--7--------7--7--9--9--7--9--7--
A|--7--7-----------------------7--7-----------------------
E|--------------------------------------------------------

Stave 6:

G|-----------------------------------------------------------------------------
D|--------5--5--7--7--5--7--5--------5--5--7--7--5--7--5--------5--5--7--7--9--
A|--5--5-----------------------5--5-----------------------5--5-----------------
E|-----------------------------------------------------------------------------

Stave 7:

G|--------------
D|-----7-----7--
A|--7-----7-----
E|--------------

Stave 8:

G|--------------------------------------------------
D|-----9--7--4--5--7-----7--7--9--9--9--12--14--12--
A|--5-----------------5-----------------------------
E|--------------------------------------------------

http://www.guitartabcreator.com
Guitar Tab Creator is intended to store guitar tab created through the tool. It currently does not support in-line text editing. Any text you place in here will be lost. If you need to comment on your tab, please use the "Tab Notes" section located below.