Sound will begin in 5 seconds

making paper dolls in a burning house

01234567891011121314151617181920212223
E
B
G
D
A
E
B
0 1 2 3 4 5 6 7 8 9 10 11 12 13 14 15 16 17 18 19 20 21 22 23
Song Science #1: How Pros Use 6 Chords to Write Hit Songs
(/) Slide Up  (\) Slide Down  (h) Hammer On  (p) Pull Off  (b) Bend (r) Release (v) Vibrato

Stave 1:

E|-------------------------------------------
B|-------------------------------------------
G|-----------7-----------10--------------14--
D|--------5-----------8--------------12------
A|-----5-----------8-------------12----------
E|--5-----------8------------12--------------

Stave 2:

E|---------------------------
B|---------------------------
G|-----------7-----------10--
D|--------5-----------8------
A|-----5-----------8---------
E|--5-----------8------------

Stave 3:

E|-----
B|-----
G|--9--
D|-----
A|-----
E|-----

Stave 4:

E|--------------
B|--------------
G|-----------7--
D|--------5-----
A|-----5--------
E|--5-----------

Stave 5:

E|--------
B|--------
G|-----4--
D|--------
A|--2-----
E|--------

Stave 6:

E|-----------
B|-----------
G|-----2-----
D|--------2--
A|--0--------
E|-----------

Stave 7:

E|-----
B|-----
G|--1--
D|-----
A|-----
E|-----

Stave 8:

E|--------
B|--------
G|-----2--
D|--------
A|--0-----
E|--------

Stave 9:

E|-----------
B|-----------
G|--------2--
D|-----------
A|--0--------
E|-----0-----

Stave 10:

E|-----
B|-----
G|--1--
D|-----
A|-----
E|-----

http://www.guitartabcreator.com
Guitar Tab Creator is intended to store guitar tab created through the tool. It currently does not support in-line text editing. Any text you place in here will be lost. If you need to comment on your tab, please use the "Tab Notes" section located below.