Sound will begin in 5 seconds

BORN FOR YOU - DAVID POMERANZ

Chords
01234567891011121314151617181920212223
E
B
G
D
A
E
B
0 1 2 3 4 5 6 7 8 9 10 11 12 13 14 15 16 17 18 19 20 21 22 23
Song Science #1: How Pros Use 6 Chords to Write Hit Songs
(/) Slide Up  (\) Slide Down  (h) Hammer On  (p) Pull Off  (b) Bend (r) Release (v) Vibrato

Stave 1:

E|-------0-----------0-0-1---------------
B|-----------3---1-3---1-----1-----------
G|-----0---0---0-------2-------2---2-2-0-
D|---2-----------------------------------
A|-3-------------------------------------
E|---------------------0---0-----0-------

Stave 2:

E|-------0-----------0-0-1-----3---1-
B|---1-------3---1-3---1-----1-------
G|---0-0---0---0-------2-------------
D|-3---------------------------------
A|---3-------------------------------
E|---------------------0---0-----2---

Stave 3:

E|-----------------------------------------------
B|-1-1-1-1---1-1---1h3-----1-1-1-1---1-1---1h3---
G|-0---------0-------------2---------2-----------
D|-2---------2-------------3---------3-----------
A|-3-------3-----3-----3-2-----------------------
E|-------------------------0-------0-----0-----0-

Stave 4:

E|---------------------------0-1-0-------------------
B|-1-1-1-1---1-1---1h3---1-3-1-------1---------------
G|-0---------0---------------2---------2-----2---0h2-
D|-2---------2-----------------------------3---3-----
A|-3-------3-----3-----3-----------------------------
E|---------------------------0-----0-----0-----------

Stave 5:

E|---------------------------------
B|-0-0-0-0---0-0---0h1---1-0-------
G|-0---------0---------------2-0-0-
D|-2---------2---------------3-----
A|-2-------2-----0-----0-----------
E|---------------------------0-----

Stave 6:

E|---------------------------------------
B|-----------------0-0-0-0---0-0---0h1---
G|-----0---5---0h2-0---------0-----------
D|---3-------------2---------2-----------
A|-------3---3-----2-------2-----0-----0-
E|-0-------------------------------------

Stave 7:

E|-------------------------------
B|-1-0---0-1---1h3-3-----1---0---
G|-----2---------------0---0-----
D|-----3-------------------------
A|-------------------------------
E|-----0-----0-------2-----------

Stave 8:

E|---0-1-3-------------------------------
B|-3-----1-1-1---------1---1-3---3-3-3---
G|-----------2-------2-2---------0-0-0---
D|-------------3---3---------------------
A|---------------------------------------
E|-------0---x---0-----x-0-----2-----x---

Stave 9:

E|---0-0-----0-1-3-3-------------------------
B|-----------1-----1-1-1---------1---1-3-----
G|-------------------2-2-------2-2-----------
D|---------2-------------3---3---------------
A|-------3-----------------------------------
E|-2---------x-----0---x---0-----x-0-----2---

Stave 10:

E|---------0-0-----0---------3-1-----0-0-
B|-3-3-3-----------1-3-1-0---------------
G|-0-0-0-------------------2-------------
D|---------------2---------3-------------
A|-------------3-------------------------
E|-----x-2---------x-------0-----x-0-----

Stave 11:

E|-------------0h1-0-0-------------------
B|---3-3-------------------3-3-----------
G|---1-1-----2-------------------2-2-----
D|-----------------------------0---------
A|-------------3---------3---------------
E|-0-----x-0-----------x-------------x---

Stave 12:

E|---------0-0---1-----------------0---------1---0-----------
B|-----------------3-----------------3-----1-------1---0h1-1-
G|---2p0-0-------------2-----2p0-0-----------------2---------
D|-0-------------------------------------------0---3---------
A|-------3-----------------------3-------3-------------------
E|-------------x-----0---x-0-----------x-------------2-------

Stave 13:

E|-------0-----------0-0-1-0-----3---1-
B|-----------3---1-3---1-------1-----0-
G|-----0---0---0-------2---------------
D|---2---------------------------------
A|-3-----------------------------------
E|-------3-------------0-----0-----2---

Stave 14:

E|-0---------3-1---0-0-----------0h1-0-0-------------------0-0-
B|-1-3-1-0---------------3-3---------------3-3-----------------
G|-0-------2-------------1-1---2-----------------2-2---2-0-----
D|---------3-----------------------------------0-----0---------
A|-3-----------------------------3-------3---------------3-----
E|---------0-----0-----0-----0---------------------------------

Stave 15:

E|---1-----------0-0---1-1h3---1-0-----0-----1---0-----------
B|-----3-----------------------1-1-------3-1-------1---0h1-1-
G|---------2p0-0-------------------2-0-------------2---------
D|-------0-------------------------------------0---3---------
A|-3-----------3-----3-------0-0-0---3-----------------------
E|---------------------------------------------------2-------

http://www.guitartabcreator.com
Guitar Tab Creator is intended to store guitar tab created through the tool. It currently does not support in-line text editing. Any text you place in here will be lost. If you need to comment on your tab, please use the "Tab Notes" section located below.