Sound will begin in 5 seconds

Whisper Love - Solo

Chords
01234567891011121314151617181920212223
E
B
G
D
A
E
B
0 1 2 3 4 5 6 7 8 9 10 11 12 13 14 15 16 17 18 19 20 21 22 23
Song Science #1: How Pros Use 6 Chords to Write Hit Songs
(/) Slide Up  (\) Slide Down  (h) Hammer On  (p) Pull Off  (b) Bend (r) Release (v) Vibrato

Stave 1:

E|--------------------------------|----------------------------|--12----------------------------------|---------------------------|--
B|---------15---------------------|---------15-----------------|------15--12--------------------------|--20b20r20b20r20b17h20-----|--
G|-----------------12--14---------|-----------------12--14--14b|--------------14--12------------------|------------------------19b|--
D|--12h14------14----------12h14--|--12h14------14-------------|----------------------14--12--14--14--|---------------------------|--
A|--------------------------------|----------------------------|--------------------------------------|---------------------------|--
E|--------------------------------|----------------------------|--------------------------------------|---------------------------|--

Stave 2:

E|-------------------------------|-------------------------------------|-----------------------------------|--
B|-----12h15p12------------------|-------------------------------------|--3/12--3/15--3/17--17b17--15--17--|--
G|--14b----------14b14b14b14r14--|-------------------------------------|-----------------------------------|--
D|-------------------------------|-------5h7/14--12\5--7-------5-------|-----------------------------------|--
A|-------------------------------|--5h7-------------------5h7-----5h7--|-----------------------------------|--
E|-------------------------------|-------------------------------------|-----------------------------------|--

Stave 3:

E|------------------------------------------------------------------------------|--12-12----12-12-|-----------------------------------------------------|--
B|------------------------------------------------------------------------------|--15b15b---15b15b|-----5--8-----5--8-----5--8-----5--8-----5--8b8r8b8--|--
G|------------------------------12------12--14--12------------------------------|-----------------|--7--------7--------7--------7--------7--------------|--
D|----------------------12--14------14--------------14--12----------------------|-----------------|-----------------------------------------------------|--
A|----------12--13--14--------------------------------------14--13--12----------|-----------------|-----------------------------------------------------|--
E|--12--15--------------------------------------------------------------15--12--|-----------------|-----------------------------------------------------|--

Stave 4:

E|-----------------------------------------------------
B|--15b15--15--15--15--15--15--15--15--15--15----------
G|--14-14--14--14--14--14--14--14--14--14--14b---------
D|--------------------------------------------14--14v--
A|-----------------------------------------------------
E|-----------------------------------------------------

http://www.guitartabcreator.com
Guitar Tab Creator is intended to store guitar tab created through the tool. It currently does not support in-line text editing. Any text you place in here will be lost. If you need to comment on your tab, please use the "Tab Notes" section located below.