Sound will begin in 5 seconds

The Unseen

01234567891011121314151617181920212223
E
B
G
D
A
E
B
0 1 2 3 4 5 6 7 8 9 10 11 12 13 14 15 16 17 18 19 20 21 22 23
Song Science #1: How Pros Use 6 Chords to Write Hit Songs
(/) Slide Up  (\) Slide Down  (h) Hammer On  (p) Pull Off  (b) Bend (r) Release (v) Vibrato

Stave 1:

Bb|---------------|---------------|----------------|---------------|-
F |---------------|---------------|----------------|---------------|-
Db|---------------|---------------|----------------|---------------|-
Ab|---------------|---------------|----------------|---------------|-
Eb|-6-7-6-x-x-3-2-|-6-7-6-x-x-3-2-|-9-10-9-x-x-7-3-|-6-7-6-x-x-3-2-|-
Bb|-4-5-4-x-x-1-0-|-4-5-4-x-x-1-0-|-7-8--7-x-x-5-1-|-4-5-4-x-x-1-0-|-

Stave 2:

Bb|-----|-----------
F |-----|-----------
Db|-4-9-|-----------
Ab|-----|-----------
Eb|-2-7-|-2---------
Bb|-----|-0------17/

Stave 3:

Bb|-------------------------|-------------|------------------------------|----------------------------|-
F |-------------------------|-------------|------------------------------|----------------------------|-
Db|-------------------------|-------------|------------------------------|----------------------------|-
Ab|-------------------------|-------------|------------------------------|----------------------------|-
Eb|---------8---7---8---10--|-------------|------10---8---10---11-----6v-|---------8---7---8---10-----|-
Bb|-0--0-0----0---0---0-----|--0-0-0-0-0--|--0-0----0---0----0----0-0----|-0--0-0----0---0---0----0-0-|-

Stave 4:

Bb|-------------------------------
F |-------------------------------
Db|-------------------------------
Ab|-------------------------------
Eb|-6p5---5-------------------5h8-
Bb|-----6---6-5-3/5-2/3-4-3-6-----

http://www.guitartabcreator.com
Guitar Tab Creator is intended to store guitar tab created through the tool. It currently does not support in-line text editing. Any text you place in here will be lost. If you need to comment on your tab, please use the "Tab Notes" section located below.