Sound will begin in 5 seconds

Devouring

01234567891011121314151617181920212223
E
B
G
D
A
E
B
0 1 2 3 4 5 6 7 8 9 10 11 12 13 14 15 16 17 18 19 20 21 22 23
Song Science #1: How Pros Use 6 Chords to Write Hit Songs
(/) Slide Up  (\) Slide Down  (h) Hammer On  (p) Pull Off  (b) Bend (r) Release (v) Vibrato

Stave 1:

C |-------------------------|-------------------------|-
G |-------------------------|-------------------------|-
Eb|-------------------------|-------------------------|-
Bb|-4-------4---4-------4---|-5-------5---5-------5---|-
F |-------------------------|-------------------------|-
C |---2-0-2---2---2-0-2---2-|---2-0-2---2---2-0-2---2-|-

Stave 2:

C |-------------------------|-----------------------|-
G |-------------------------|-----------------------|-
Eb|-------------------------|-----------------------|-
Bb|-------------------------|-----------------------|-
F |-5-------5---5-------5---|-4-3-x-x-4-x-4-3-x-x-4-|-
C |---1-0-1---1---1-0-1---1-|-2-1-x-x-2-x-2-1-x-x-2-|-

Stave 3:

C |-------------------------|-----------------------|-
G |-------------------------|-----------------------|-
Eb|-------------------------|-----------------------|-
Bb|-4-------4---4-------4---|-5-------5---5-----5-6-|-
F |-------------------------|-----------------------|-
C |---2-0-2---2---2-0-2---2-|---6-0-6---6---6-0-----|-

Stave 4:

C |----
G |----
Eb|----
Bb|-4-2-
F |-5-4-
C |-2---

Stave 5:

C |-------------------------------------------------------------------------
G |-------------------------------------------------------------------------
Eb|-------------------------------------------------------------------------
Bb|-4-------2/4-4-------2/4-5-------4/5-5-------5---------------------------
F |-------------------------------------------------5-------5---5-------5---
C |---0-0-0-------0-0-0-------0-0-0-------0-0-0---0---1-1-1---1---1-1-1---1-

Stave 6:

C |-----------------------|------|------
G |-----------------------|------|------
Eb|-----------------------|------|------
Bb|-----------------------|------|-4--2-
F |-4-3-x-x-4-x-4-3-x-x-4--|--3v--|-5--4-
C |-2-1-x-x-2-x-2-1-x-x-2--|------|-2----

Stave 7:

C |-------------
G |-------------
Eb|-------------
Bb|---------7---
F |-------------
C |---0-0-0---0-

http://www.guitartabcreator.com
Guitar Tab Creator is intended to store guitar tab created through the tool. It currently does not support in-line text editing. Any text you place in here will be lost. If you need to comment on your tab, please use the "Tab Notes" section located below.