Lenny solo

Chords

01234567891011121314151617181920212223
E
B
G
D
A
E
B
0 1 2 3 4 5 6 7 8 9 10 11 12 13 14 15 16 17 18 19 20 21 22 23
(/) Slide Up  (\) Slide Down  (h) Hammer On  (p) Pull Off  (b) Bend (r) Release (v) Vibrato

Stave 1:

E|-----------------------------------------------------------------------------------------12----------12--12------------------------
B|--7h9/12-----9h12-----9h12/14-----12h14/17-----14h17p12-----14p12-----14p12--------------------------------------------------------
G|-------------------------------------------------------------------------------------12--14----------12--14--14h15p14--14--14--12--
D|-----------------------------------------------------------------------------12--14----------12--14--------------------------------
A|-----------------------------------------------------------------------------------------------------------------------------------
E|-----------------------------------------------------------------------------------------------------------------------------------

Stave 2:

E|------------------------------------------------------------------------------------------------------------------------------------
B|------------------------------------------------------------------------------------------------------------------------------------
G|-------------------------12--14--14r---14p12----------------------------12h13--14--12h13-----------------------------12--13--14r15--
D|--14--14--14--11-----14-----------------------14--14--14--------11--14--------------------14-----------------11--14-----------------
A|----------------------------------------------------------------------------------------------14--12\11--14-------------------------
E|------------------------------------------------------------------------------------------------------------------------------------

Stave 3:

E|------12-------------14--12h14p12-------------15--12h14p12------12------12--
B|--12------15--12-------------------15--12-------------------15------12------
G|----------------------------------------------------------------------------
D|----------------------------------------------------------------------------
A|----------------------------------------------------------------------------
E|----------------------------------------------------------------------------

							http://www.guitartabcreator.com
Instruments
{"strings":[[[".",".",".",".",".","_",".",".",".","_",".",".",".",".",".","_",".",".",".",".",".","_",".",".",".",".",".","_",".",".",".","_",".",".",".",".",".",".",12,".",".",12,12,".",".",".",".",".",".",".","."],[7,"h",9,"/",12,"_",9,"h",12,"_",9,"h",12,"/",14,"_",12,"h",14,"/",17,"_",14,"h",17,"p",12,"_",14,"p",12,"_",14,"p",12,".",".",".",".",".",".",".",".",".",".",".",".",".",".",".","."],[".",".",".",".",".","_",".",".",".","_",".",".",".",".",".","_",".",".",".",".",".","_",".",".",".",".",".","_",".",".",".","_",".",".",".",".",".",12,14,".",".",12,14,14,"h",15,"p",14,14,14,12],[".",".",".",".",".","_",".",".",".","_",".",".",".",".",".","_",".",".",".",".",".","_",".",".",".",".",".","_",".",".",".","_",".",".",".",12,14,".",".",12,14,".",".",".",".",".",".",".",".",".","."],[".",".",".",".",".","_",".",".",".","_",".",".",".",".",".","_",".",".",".",".",".","_",".",".",".",".",".","_",".",".",".","_",".",".",".",".",".",".",".",".",".",".",".",".",".",".",".",".",".",".","."],[".",".",".",".",".","_",".",".",".","_",".",".",".",".",".","_",".",".",".",".",".","_",".",".",".",".",".","_",".",".",".","_",".",".",".",".",".",".",".",".",".",".",".",".",".",".",".",".",".",".","."]],[[".",".",".",".","_",".",".",".",".",".","_",".",".",".",".",".",".","_","_",".",".",".",".",".",".",".",".",".",".",".",".",".",".",".",".",".",".",".",".",".","."],[".",".",".",".","_",".",".",".",".",".","_",".",".",".",".",".",".","_","_",".",".",".",".",".",".",".",".",".",".",".",".",".",".",".",".",".",".",".",".",".","."],[".",".",".",".","_",".",12,14,14,"r","_",14,"p",12,".",".",".","_","_",".",".",12,"h",13,14,12,"h",13,".",".",".",".",".",".",".",".",12,13,14,"r",15],[14,14,14,11,"_",14,".",".",".",".","_",".",".",".",14,14,14,"_","_",11,14,".",".",".",".",".",".",".",14,".",".",".",".",".",11,14,".",".",".",".","."],[".",".",".",".","_",".",".",".",".",".","_",".",".",".",".",".",".","_","_",".",".",".",".",".",".",".",".",".",".",14,12,"\\",11,14,".",".",".",".",".",".","."],[".",".",".",".","_",".",".",".",".",".","_",".",".",".",".",".",".","_","_",".",".",".",".",".",".",".",".",".",".",".",".",".",".",".",".",".",".",".",".",".","."]],[[".",12,".",".","_",14,12,"h",14,"p",12,".",".","_",15,12,"h",14,"p",12,".",12,".",12],[12,".",15,12,"_",".",".",".",".",".",".",15,12,"_",".",".",".",".",".",".",15,".",12,"."],[".",".",".",".","_",".",".",".",".",".",".",".",".","_",".",".",".",".",".",".",".",".",".","."],[".",".",".",".","_",".",".",".",".",".",".",".",".","_",".",".",".",".",".",".",".",".",".","."],[".",".",".",".","_",".",".",".",".",".",".",".",".","_",".",".",".",".",".",".",".",".",".","."],[".",".",".",".","_",".",".",".",".",".",".",".",".","_",".",".",".",".",".",".",".",".",".","."]]],"numberofstrings":6,"notes":["E","B","G","D","A","E","B"],"capo":0,"stringnotes":["E4","B3","G3","D3","A2","E2"],"comments":["Stave 1:","Stave 2:","Stave 3:"],"timing":[["W",null,"W",null,"W",null,"W",null,"W",null,"W",null,"W",null,"W",null,"W",null,"W",null,"W",null,"W",null,"W",null,"W",null,"W",null,"W",null,"W",null,"W","W","W","W","W","W","W","W","W","W",null,"W",null,"W","W","W","W"],["W","W","W","W",null,"W","W","W","W",null,"W","W","W","W","W","W","W",null,null,"W","W","W",null,"W","W","W",null,"W","W","W","W",null,"W","W","W","W","W","W","W","W","W","W","W"],["W","W","W","W","W","W","W",null,"W",null,"W","W","W","W","W","W",null,"W",null,"W","W","W","W","W"]],"timingvisible":false,"tabcounter":24,"stave":2,"totalstaves":3,"instrument":"6guitar","selectedtuning":"6_standard","version":"13"}

Member for

1 month 1 week
Submitted by chiel125 on Fri, 2020-10-16 13:33