Sound will begin in 5 seconds

Full Pentatonic Scale

01234567891011121314151617181920212223
E
B
G
D
A
E
B
0 1 2 3 4 5 6 7 8 9 10 11 12 13 14 15 16 17 18 19 20 21 22 23
Song Science #1: How Pros Use 6 Chords to Write Hit Songs
(/) Slide Up  (\) Slide Down  (h) Hammer On  (p) Pull Off  (b) Bend (r) Release (v) Vibrato

Stave 1:

E|-----------------------------0--3--------------------------------3--5--
B|-----------------------1--3--------------------------------3--5--------
G|-----------------0--2--------------------------------2--5--------------
D|--------------2--------------------------------2--5--------------------
A|--------0--3-----------------------------3--5--------------------------
E|--0--3-----------------------------3--5--------------------------------

Stave 2:

E|--------------------------------5--8------------------------------------8--10--
B|--------------------------5--8-----------------------------------8--10---------
G|--------------------5--7-----------------------------------7--9----------------
D|--------------5--7----------------------------------7--10----------------------
A|--------5--7---------------------------------7--10-----------------------------
E|--5--8--------------------------------8--10------------------------------------

Stave 3:

E|-----------------------------------------10--12------------------------------------------12--15--
B|---------------------------------10--13------------------------------------------13--15----------
G|--------------------------9--12------------------------------------------12--14------------------
D|------------------10--12-----------------------------------------12--14--------------------------
A|----------10--12-----------------------------------------12--15----------------------------------
E|--10--12-----------------------------------------12--15------------------------------------------

Stave 4:

E|------------------------------------------15--17--
B|----------------------------------15--17----------
G|--------------------------14--17------------------
D|------------------14--17--------------------------
A|----------15--17----------------------------------
E|--15--17------------------------------------------

http://www.guitartabcreator.com
Guitar Tab Creator is intended to store guitar tab created through the tool. It currently does not support in-line text editing. Any text you place in here will be lost. If you need to comment on your tab, please use the "Tab Notes" section located below.