Sound will begin in 5 seconds

Out of Time(Signatures)

01234567891011121314151617181920212223
E
B
G
D
A
E
B
0 1 2 3 4 5 6 7 8 9 10 11 12 13 14 15 16 17 18 19 20 21 22 23
Song Science #1: How Pros Use 6 Chords to Write Hit Songs
(/) Slide Up  (\) Slide Down  (h) Hammer On  (p) Pull Off  (b) Bend (r) Release (v) Vibrato

Stave 1:

G|--------------------
D|--------------------
A|--6--5--4--5--4--3--
E|--------------------

Stave 2:

G|--------------------------------------------------------------------------------------------------
D|--------------------------------------------------------------------------------------------------
A|--0--0--0--3--0--3--5--6--0--0--0--3--0--6--5--3--0--0--0--3--0--3--5--6--0--0--0--3--0--6--5--3--
E|--------------------------------------------------------------------------------------------------

Stave 3:

G|-----------
D|-----------
A|--5--4--3--
E|-----------

Stave 4:

G|-------------------------------------------------------------------------------------------------------
D|-------------------------------------------------------------------------------------------------------
A|--0--0--0--3--0--3--5--6--0--0--0--3--0--6--5--3--0--0--0--3--0--3--5--6--6\0--------------------------
E|-------------------------------------------------------------------------------------------------------

Stave 5:

G|-----------
D|-----------
A|--5--4--3--
E|-----------

Stave 6:

G|--------------------------------------------------
D|--------------------------------------------------
A|--0--0--0--3--0--3--5--6--0--0--0--3--0--6--5--3--
E|--------------------------------------------------

Stave 7:

G|-----------
D|-----------
A|--5--4--3--
E|-----------

Stave 8:

G|--------------------
D|--------------------
A|--6--5--4--5--4--3--
E|--------------------

Stave 9:

G|-----------------------------
D|-----------------------------
A|--7--6--5--6--5--4--5--4--3--
E|-----------------------------

Stave 10:

G|-----------------------------------------------
D|-----------------------------------------------
A|--5--4--3--------0--------0--------0--------0--
E|-----------------------------------------------

Stave 11:

G|--------------------------------------------------
D|--------------------------------------------------
A|--------------------------------------------------
E|--3-----0-----------0-----------0-----3--0--3--5--

Stave 12:

G|--------------------------------------------------
D|--------------------------------------------------
A|--3-----0-----------0-----------0-----3--0--3--5--
E|--------------------------------------------------

Stave 13:

G|--------------------------------------------------------
D|--------------------------------------------------------
A|--------------------------------------------------------
E|--3-----0-----------0-----------0-----3--0--0--0--3--5--

Stave 14:

G|--------------------------------------------------------
D|--------------------------------------------------------
A|--3-----0-----------0-----------0-----3--0--0--0--3--5--
E|--------------------------------------------------------

Stave 15:

G|--------------------
D|--------------------
A|--3--0--0--0--3--5--
E|--------------------

Stave 16:

G|--------------------------------------
D|--------------------------------------
A|--3--0--0--0--3--5--6--6--6--5--3--0--
E|--------------------------------------

Stave 17:

G|--------------------------------
D|--------------------------------
A|--0--0--3--5--6--6--6--5--3--0--
E|--------------------------------

Stave 18:

G|--------------------
D|--------------------
A|--6--6--6--5--3-----
E|--------------------

http://www.guitartabcreator.com
Guitar Tab Creator is intended to store guitar tab created through the tool. It currently does not support in-line text editing. Any text you place in here will be lost. If you need to comment on your tab, please use the "Tab Notes" section located below.