Sound will begin in 5 seconds

minor is finer 2

01234567891011121314151617181920212223
E
B
G
D
A
E
B
0 1 2 3 4 5 6 7 8 9 10 11 12 13 14 15 16 17 18 19 20 21 22 23
Song Science #1: How Pros Use 6 Chords to Write Hit Songs
(/) Slide Up  (\) Slide Down  (h) Hammer On  (p) Pull Off  (b) Bend (r) Release (v) Vibrato

Stave 1:

E|----------------------------------------------------------------
B|----------9--11--9-------------9------11--9------11--9----------
G|--10--10------------10-----10-----10---------10---------10--10--
D|----------------------------------------------------------------
A|----------------------------------------------------------------
E|----------------------------------------------------------------

Stave 2:

E|-------------------------------------------------------
B|--11--11--14--14--13--11---------9------11--9----------
G|-----------------------------10-----10---------10--10--
D|-------------------------------------------------------
A|-------------------------------------------------------
E|-------------------------------------------------------

Stave 3:

E|----------4-------3--------------------------------------
B|--6--------------------------------9------11--9----------
G|-----6p5-----4p3---------------10-----10---------10--10--
D|---------------------------10----------------------------
A|---------------------------------------------------------
E|---------------------------------------------------------

Stave 4:

E|----------------6-----------7--8-----------------6--------7--8--------9--
B|-----5h6-----8-----6-----------------5--6-----8--------------------------
G|--5----------------------------------------------------------------------
D|-------------------------------------------------------------------------
A|-------------------------------------------------------------------------
E|-------------------------------------------------------------------------

Stave 5:

E|--5--6-----8--9--------8------------------------------
B|--------------------------11--9--8---------8----------
G|------------------------------------10--9-----10------
D|--------------------------------------------------10--
A|------------------------------------------------------
E|------------------------------------------------------

Stave 6:

E|-----------------------------------------------------------------
B|-----8--10--7------------------8--11--8-----8--9------------8p6--
G|---------------------10--8--9---------------------10--9----------
D|--8--------------------------------------------------------------
A|-----------------------------------------------------------------
E|-----------------------------------------------------------------

Stave 7:

E|-----------------------------------------8-----------------------------------------------------------------11--
B|-------------8--9------9--11--------p10-----11--9--------------------------9--------------------9--10--13------
G|--10--9--10--------10------------------------------12--10--9--12p10-----------12p10--9--10--12-----------------
D|---------------------------------------------------------------------------------------------------------------
A|---------------------------------------------------------------------------------------------------------------
E|---------------------------------------------------------------------------------------------------------------

Stave 8:

E|------------------------------------------------------------------------------------
B|--13p11--------9p8---------8--9--11--9------------------12--11-----9---------9------
G|-----------------------11---------------12--9p10----------------------10--------10--
D|------------------------------------------------------------------------------------
A|------------------------------------------------------------------------------------
E|------------------------------------------------------------------------------------

Stave 9:

E|--------------------------------------------------------------------
B|--12--12--------9------12--12--9--------------------------9---------
G|-------------------10-------------10--8------8--10-----------9--12--
D|-----------------------------------------10-------------------------
A|--------------------------------------------------------------------
E|--------------------------------------------------------------------

http://www.guitartabcreator.com
Guitar Tab Creator is intended to store guitar tab created through the tool. It currently does not support in-line text editing. Any text you place in here will be lost. If you need to comment on your tab, please use the "Tab Notes" section located below.