Sound will begin in 5 seconds

minor is finer

01234567891011121314151617181920212223
E
B
G
D
A
E
B
0 1 2 3 4 5 6 7 8 9 10 11 12 13 14 15 16 17 18 19 20 21 22 23
Song Science #1: How Pros Use 6 Chords to Write Hit Songs
(/) Slide Up  (\) Slide Down  (h) Hammer On  (p) Pull Off  (b) Bend (r) Release (v) Vibrato

Stave 1:

E|--------------4--6--4--------------4-----6--4-----6--4--------
B|--6--------6-----------6--------6-----6--------6--------6--6--
G|--------------------------------------------------------------
D|--------------------------------------------------------------
A|--------------------------------------------------------------
E|--------------------------------------------------------------

Stave 2:

E|----------9--9--8------------------4-----6--4--------
B|--11--11-----------11-----------6-----6--------6--6--
G|-----------------------------------------------------
D|-----------------------------------------------------
A|-----------------------------------------------------
E|-----------------------------------------------------

Stave 3:

E|-----------6--9--9--------------------4-----6--4-----------4--
B|--------------------------8--8-----6-----6--------6-----------
G|--6-----------------5--3--------5-----------------------------
D|-----6--5-----------------------------------------------------
A|--------------------------------------------------------------
E|--------------------------------------------------------------

Stave 4:

E|-----------------6-----------7--8-----------6--6--8--8--9--
B|--5--6--6--6--8-----6--6-----------5--6--8-----------------
G|-----------------------------------------------------------
D|-----------------------------------------------------------
A|-----------------------------------------------------------
E|-----------------------------------------------------------

Stave 5:

E|--5--6--8--9--5--6--8--9-----8--6--------------------------
B|-----------------------------------9--8--6--5--8-----6-----
G|--------------------------------------------------------5--
D|-----------------------------------------------------------
A|-----------------------------------------------------------
E|-----------------------------------------------------------

Stave 6:

E|-----4--6--------------------6-----------------------
B|--4--------8--8--6--------8-----8-----6--6--5--8--6--
G|--------------------8--9-----------9-----------------
D|-----------------------------------------------------
A|-----------------------------------------------------
E|-----------------------------------------------------

Stave 7:

E|--------------4-----4--6--------7--8--7--------------------------4--3-----------3--4--5--8--11--
B|--6--5--6--8-----6-----------------------9--8--6--5--8-----------------6--5--6------------------
G|------------------------------------------------------------------------------------------------
D|------------------------------------------------------------------------------------------------
A|------------------------------------------------------------------------------------------------
E|------------------------------------------------------------------------------------------------

Stave 8:

E|--11--8---------------------------------------------------------------------------------------------
B|---------11--11--9--8--------8----------9--11--9----------------12--12--11--9----------------9------
G|--------------------------------11--12------------12--9-----10-----------------10--10-----------10--
D|----------------------------------------------------------------------------------------------------
A|----------------------------------------------------------------------------------------------------
E|----------------------------------------------------------------------------------------------------

Stave 9:

E|--7--7--7--------4-----7--7--4--------------------------4-----3--3--
B|--------------------6-----------6--4-----4--6--6-----------5--------
G|--------------------------------------5-----------------------------
D|--------------------------------------------------------------------
A|--------------------------------------------------------------------
E|--------------------------------------------------------------------

http://www.guitartabcreator.com
Guitar Tab Creator is intended to store guitar tab created through the tool. It currently does not support in-line text editing. Any text you place in here will be lost. If you need to comment on your tab, please use the "Tab Notes" section located below.