test

Chords

01234567891011121314151617181920212223
E
B
G
D
A
E
B
0 1 2 3 4 5 6 7 8 9 10 11 12 13 14 15 16 17 18 19 20 21 22 23
(/) Slide Up  (\) Slide Down  (h) Hammer On  (p) Pull Off  (b) Bend (r) Release (v) Vibrato

Capo Fret 2

Stave 1:                                                                 for 3/4 use 3rd fret top string and open  on 2nd string 

E|--------3--2--3--2-----3--------------------3--2--3--------3-----------3-------------------------------------------------
B|-----0--------0-----3-----1--------------0--------------------------3-----------1-----------3/4--------1--2--0-----------
G|--0--------0--------0-----0-----------0--------0--------0--------0-----------0----------------------------0-----2--------
D|--------2-----------------------------------2--------2----------------------------------------------------0-----0--------
A|-----------------3--------------------------------------------3-----------3-----------------3----------------------------
E|-------------------------------------------------------------------------------------------------------------------------

Stave 2:

E|-----------------------------------------------------------------
B|-------------------------0-----------------0h1--3--------1p0-----
G|--0-----0-----------0h2--------0----------------------0-------2--
D|-----4-----2----------------2----------------------0----------0--
A|-----------2-------------3---------------------------------------
E|--------0---------------------------------------3----------------

							http://www.guitartabcreator.com
Tab Notes
Instruments
{"strings":[[[".",".",3,2,3,2,".",3,".",".",".",".",".",".",3,2,3,".",".",3,".",".",".",3,".",".",".",".",".",".",".","_","_","_","_","_","_","_",".","_","_"],[".",0,".",".",0,".",3,".",1,".",".",".",".",0,".",".",".",".",".",".",".",".",3,".",".",".",1,".",".",".",3,"/",4,"_",".",1,2,0,".","_","_"],[0,".",".",0,".",".",0,".",0,".",".",".",0,".",".",0,".",".",0,".",".",0,".",".",".",0,".",".",".",".",".","_","_","_",".","_",0,"_",2,"_","_"],[".",".",2,".",".",".",".",".",".",".",".",".",".",".",2,".",".",2,".",".",".",".",".",".",".",".",".",".",".",".",".","_","_","_","_","_",0,"_",0,"_","_"],[".",".",".",".",".",3,".",".",".",".",".",".",".",".",".",".",".",".",".",".",3,".",".",".",3,".",".",".",".",".",3,"_","_","_","_","_","_","_",".","_","_"],[".",".",".",".",".",".",".",".",".",".",".",".",".",".",".",".",".",".",".",".",".",".",".",".",".",".",".",".",".",".",".","_","_","_","_","_","_","_",".","_","_"]],[[".",".",".",".",".",".",".",".",".",".",".",".",".",".",".",".",".",".",".",".",".",".",".",".","."],[".",".",".",".",".",".",".",".",".",0,".",".",".",".",".",0,"h",1,3,".",".",1,"p",0,"."],[0,".",0,".",".",".",0,"h",2,".",".",0,".",".",".",".",".",".",".",".",0,".",".",".",2],[".",4,".",2,".",".",".",".",".",".",2,".",".",".",".",".",".",".",".",0,".",".",".",".",0],[".",".",".",2,".",".",".",".",".",3,".",".",".",".",".",".",".",".",".",".",".",".",".",".","."],[".",".",0,".",".",".",".",".",".",".",".",".",".",".",".",".",".",".",3,".",".",".",".",".","."]]],"numberofstrings":6,"notes":["E","B","G","D","A","E","B"],"capo":"2","stringnotes":["E4","B3","G3","D3","A2","E2"],"comments":["Stave 1: for 3/4 use 3rd fret top string and open on 2nd string ","Stave 2:","Stave 3:"],"timing":[[null,null,null,null,null,null,null,null,null,null,null,null,null,null,null,null,null,null,null,null,null,null,null,null,null,null,null,null,null,null,null,null,null,null,null,null,"W",null,null,null,"W","W","W"],[null,"W","W","W","W",null,null,"W",null,"W","W","W","W",null,null,null,"W",null,"W","W","W","W","W",null,"W","W"]],"timingvisible":false,"tabcounter":25,"stave":1,"totalstaves":2,"instrument":"6guitar","selectedtuning":"6_standard","version":"13"}

Member for

1 month 3 weeks
Submitted by cheurbsanctum on Wed, 2020-11-25 00:59