Sound will begin in 5 seconds

Planetshakers Endless Praise

01234567891011121314151617181920212223
E
B
G
D
A
E
B
0 1 2 3 4 5 6 7 8 9 10 11 12 13 14 15 16 17 18 19 20 21 22 23
Song Science #1: How Pros Use 6 Chords to Write Hit Songs
(/) Slide Up  (\) Slide Down  (h) Hammer On  (p) Pull Off  (b) Bend (r) Release (v) Vibrato

Stave 1:

G|--------------
D|--------------
A|--2--5--------
E|--------5--3--
B|--------------

Stave 2:

G|--------------------------------------
D|-----------7-----------------9--------
A|--------------7-----------------9-----
E|--5--5--5--------5--7--7--7--------7--
B|--------------------------------------

Stave 3:

G|--------------------------------------
D|-----------5-----------------5--------
A|--------------5-----------------5-----
E|--3--3--3--------3--3--3--3--------3--
B|--------------------------------------

Stave 4:

G|---------------------------
D|---------------------------
A|---------------------------
E|--2--3--5--7--2--3--5--10--
B|---------------------------

Stave 5:

G|--------------------------------------------------------------------
D|-----------5-----------------5-----------------9--------------------
A|--------------5-----------------5-----------------9--------5--7--9--
E|--3--3--3--------3--3--3--3--------3--7--7--7--------7--7-----------
B|--------------------------------------------------------------------

Stave 6:

G|--------------------
D|-----------9--9--9--
A|--------------------
E|--7--7--7-----------
B|--------------------

Stave 7:

G|-----------------7--9--------------------
D|-----------7--9-----------------5--------
A|-----7--9--------------------------5-----
E|--7--------------------5--5--3--------3--
B|-----------------------------------------

Stave 8:

G|--------------------------------------------------
D|-----7--5--6--7-----7--------9--7--8--9-----9-----
A|--------------------------------------------------
E|--5--------------5-----5--7--------------7-----7--
B|--------------------------------------------------

Stave 9:

G|--------------------------------------------------
D|-----5--3--4--5-----5--------5--3--4--5-----5-----
A|--------------------------------------------------
E|--3--------------3-----3--3--------------3-----3--
B|--------------------------------------------------

Stave 10:

G|-----------------------------------------------------
D|-----------------5-----3--5-----5--------------------
A|--------------------5--------------------------------
E|--3--3--3--3--3--------------3-----3--5--7--7--7--7--
B|-----------------------------------------------------

Stave 11:

G|--------------------7-----9--9--7--------7-----
D|--------7-----7--9-----9-----------9--7-----9--
A|--8--9-----9-----------------------------------
E|-----------------------------------------------
B|-----------------------------------------------

Stave 12:

G|-----------------------
D|--------7-----7--9-----
A|--5--9-----9--------9--
E|-----------------------
B|-----------------------

Stave 13:

G|--------------------------------------
D|--------5-----------------9-----------
A|-----5-----5-----------9-----9--------
E|--3-----------3--5--7-----------7--5--
B|--------------------------------------

Stave 14:

G|--------------------------
D|--------7-----7--9--------
A|--5--9-----9--------9-----
E|-----------------------7--
B|--------------------------

Stave 15:

G|-----------------
D|-----9-----------
A|--5-----9--------
E|-----------7--5--
B|-----------------

Stave 16:

G|--------9--9--7--9--7--------
D|-----------------------9--7--
A|--0--7-----------------------
E|-----------------------------
B|-----------------------------

http://www.guitartabcreator.com
Guitar Tab Creator is intended to store guitar tab created through the tool. It currently does not support in-line text editing. Any text you place in here will be lost. If you need to comment on your tab, please use the "Tab Notes" section located below.