Sound will begin in 5 seconds

Miel San Marcos Vino Celestial

01234567891011121314151617181920212223
E
B
G
D
A
E
B
0 1 2 3 4 5 6 7 8 9 10 11 12 13 14 15 16 17 18 19 20 21 22 23
Song Science #1: How Pros Use 6 Chords to Write Hit Songs
(/) Slide Up  (\) Slide Down  (h) Hammer On  (p) Pull Off  (b) Bend (r) Release (v) Vibrato

Stave 1:

G|-------------------
D|-------------------
A|--5--7--8--10--12--
E|-------------------
B|-------------------

Stave 2:

G|--------------------------------------------------------
D|--------------------------3-----------3-----------------
A|-----------------------3-----3-----3-----3--------------
E|--3--5--0--3--5--3--1-----------1-----------3-----3-----
B|-----------------------------------------------3-----3--

Stave 3:

G|--------------------------
D|--------2-----------7-----
A|-----2-----2-----7-----7--
E|--0-----------5-----------
B|--------------------------

Stave 4:

G|--------------------------------------------------------
D|--------------------------------------3-----------3-----
A|-----------------------------------3-----3-----3-----3--
E|--5--0--3--5--0--5--0--3--5--3--1-----------1-----------
B|--------------------------------------------------------

Stave 5:

G|--------------------------------------
D|--------------------2-----------7-----
A|-----------------2-----2-----7-----7--
E|--3-----3-----0-----------5-----------
B|-----3-----3--------------------------

Stave 6:

G|--------------------------
D|--------------------------
A|--7--7--5-----5--7--------
E|-----------8--------8--5--
B|--------------------------

Stave 7:

G|-----------------------------------
D|-----------------------------------
A|-----------------------------------
E|--3--3--5--5--3--0--3--5--3--1--1--
B|-----------------------------------

Stave 8:

G|--------------------------
D|--------------------------
A|-----------------5--7--8--
E|--1--3--1--3--5-----------
B|--------------------------

Stave 9:

G|--------------------------------
D|--------------------------------
A|--------------------------------
E|--1--3--3--5--5--3--0--3--5--3--
B|--------------------------------

Stave 10:

G|-------------------------------------------
D|-------------------------------------------
A|--8--8-----6--8--8--10--10------8--10--10--
E|--------8-------------------10-------------
B|-------------------------------------------

Stave 11:

G|-----------------------
D|-----------------------
A|--5--5--3-----3--5--3--
E|-----------5-----------
B|-----------------------

Stave 12:

G|--------------------
D|--------------------
A|--7--7--5--3--2--0--
E|--------------------
B|--------------------

Stave 13:

G|--------------------------------------------------------------------
D|--------------------------------------3-----------3-----------------
A|--------------------5--3-----------3-----3-----3-----3--------------
E|--5-----5-----5-----------5--3--1-----------1-----------3-----3-----
B|-----5-----5-----5-----------------------------------------3-----3--

Stave 14:

G|-----------------------------------------------------------
D|-----------------------7--5-----5--3-----------------------
A|-----7-----7-----7--7--------7--------3-----3-----3-----3--
E|--5-----5-----5--------------------------1-----1-----1-----
B|-----------------------------------------------------------

Stave 15:

G|--------------------------------------------------
D|--------------------------------3-----------3-----
A|-----------7-----7-----------3-----3-----3-----3--
E|--5-----5-----5-----5--3--1-----------1-----------
B|-----5--------------------------------------------

Stave 16:

G|---------------------------------------------------
D|--------5--------9--------------7------------------
A|-----5-----5--7-----7--------7-----7--5--7--8--10--
E|--3--------------------7--5------------------------
B|---------------------------------------------------

Stave 17:

G|--------------------------------------------------
D|--------7-----------7-----------3-----------3-----
A|-----7-----7-----7-----7-----3-----3-----3-----3--
E|--5-----------5-----------1-----------1-----------
B|--------------------------------------------------

Stave 18:

G|-----------------------------------------------------------------
D|--------------5--7-----------------3-----------3-----------------
A|-----7-----7--------7-----7-----3-----3-----3-----3--------------
E|--5-----5--------------5-----1-----------1-----------3-----3-----
B|--------------------------------------------------------3-----3--

Stave 19:

G|------------------------------------------
D|-----------------7--5---------------------
A|--7--7--5--7--7--------7-----5--7--8--10--
E|--------------------------5---------------
B|------------------------------------------

Stave 20:

G|--------------------------------------------------------------
D|--------------------------------3-----------3-----------------
A|-----7-----7-----7-----------3-----3-----3-----3--------------
E|--5-----5-----5-----5--3--1-----------1-----------3-----3-----
B|-----------------------------------------------------3-----3--

Stave 21:

G|------------------------------------------
D|-----------------7------------------------
A|--7--7--5--7--7-----7-----7--5--7--8--10--
E|-----------------------5------------------
B|------------------------------------------

Stave 22:

G|--------------------------------------------------
D|--------------7-----------------3-----------3-----
A|-----------7-----7-----7-----3-----3-----3-----3--
E|--5-----5-----------5-----1-----------1-----------
B|-----5--------------------------------------------

Stave 23:

G|---------------------------------------------------
D|---------------------------------------------------
A|--------------7--------------7-----7--5--7--8--10--
E|--3-----3--------7-----7--5-----5------------------
B|-----3-----3--------5------------------------------

Stave 24:

G|--------------------------------------------------
D|--------------------------------3-----------3-----
A|-----7-----7-----7-----------3-----3-----3-----3--
E|--5-----5-----5-----5--3--1-----------1-----------
B|--------------------------------------------------

Stave 25:

G|-----------------------------
D|--------------------5--------
A|-----------5-----5-----5--7--
E|--3-----3-----3--------------
B|-----3-----------------------

Stave 26:

G|------------------------------------------------------------------
D|---------------------------------------------------------5-----7--
A|--5--5--7--7--7--8--8--8--10--10--10--12--12--14--14--7-----7-----
E|------------------------------------------------------------------
B|------------------------------------------------------------------

http://www.guitartabcreator.com
Guitar Tab Creator is intended to store guitar tab created through the tool. It currently does not support in-line text editing. Any text you place in here will be lost. If you need to comment on your tab, please use the "Tab Notes" section located below.